  0
SECTION
  2
HEADER
  9
$ACADVER
  1
AC1015
  9
$ACADMAINTVER
 70
     6
  9
$DWGCODEPAGE
  3
ANSI_1254
  9
$INSBASE
 10
0.0
 20
0.0
 30
0.0
  9
$EXTMIN
 10
0.0
 20
0.0
 30
0.0
  9
$EXTMAX
 10
279.4
 20
215.9
 30
0.0
  9
$LIMMIN
 10
0.0
 20
0.0
  9
$LIMMAX
 10
279.4
 20
215.9
  9
$ORTHOMODE
 70
     0
  9
$REGENMODE
 70
     1
  9
$FILLMODE
 70
     1
  9
$QTEXTMODE
 70
     0
  9
$MIRRTEXT
 70
     1
  9
$LTSCALE
 40
1.0
  9
$ATTMODE
 70
     1
  9
$TEXTSIZE
 40
3.5
  9
$TRACEWID
 40
1.0
  9
$TEXTSTYLE
  7
Standard
  9
$CLAYER
  8
0
  9
$CELTYPE
  6
ByLayer
  9
$CECOLOR
 62
   256
  9
$CELTSCALE
 40
1.0
  9
$DISPSILH
 70
     0
  9
$DIMSCALE
 40
1.0
  9
$DIMASZ
 40
3.5
  9
$DIMEXO
 40
1.0
  9
$DIMDLI
 40
3.75
  9
$DIMRND
 40
0.0
  9
$DIMDLE
 40
0.0
  9
$DIMEXE
 40
1.0
  9
$DIMTP
 40
0.0
  9
$DIMTM
 40
0.0
  9
$DIMTXT
 40
3.5
  9
$DIMCEN
 40
2.5
  9
$DIMTSZ
 40
0.0
  9
$DIMTOL
 70
     0
  9
$DIMLIM
 70
     0
  9
$DIMTIH
 70
     1
  9
$DIMTOH
 70
     1
  9
$DIMSE1
 70
     0
  9
$DIMSE2
 70
     0
  9
$DIMTAD
 70
     1
  9
$DIMZIN
 70
     0
  9
$DIMBLK
  1

  9
$DIMASO
 70
     1
  9
$DIMSHO
 70
     1
  9
$DIMPOST
  1

  9
$DIMAPOST
  1

  9
$DIMALT
 70
     0
  9
$DIMALTD
 70
     3
  9
$DIMALTF
 40
0.0393700787
  9
$DIMLFAC
 40
1.0
  9
$DIMTOFL
 70
     1
  9
$DIMTVP
 40
0.0
  9
$DIMTIX
 70
     0
  9
$DIMSOXD
 70
     0
  9
$DIMSAH
 70
     0
  9
$DIMBLK1
  1

  9
$DIMBLK2
  1

  9
$DIMSTYLE
  2
ISO-25
  9
$DIMCLRD
 70
     0
  9
$DIMCLRE
 70
     0
  9
$DIMCLRT
 70
     0
  9
$DIMTFAC
 40
1.0
  9
$DIMGAP
 40
1.524
  9
$DIMJUST
 70
     0
  9
$DIMSD1
 70
     0
  9
$DIMSD2
 70
     0
  9
$DIMTOLJ
 70
     0
  9
$DIMTZIN
 70
     0
  9
$DIMALTZ
 70
     0
  9
$DIMALTTZ
 70
     0
  9
$DIMUPT
 70
     0
  9
$DIMDEC
 70
     2
  9
$DIMTDEC
 70
     2
  9
$DIMALTU
 70
     2
  9
$DIMALTTD
 70
     3
  9
$DIMTXSTY
  7
Standard
  9
$DIMAUNIT
 70
     0
  9
$DIMADEC
 70
     2
  9
$DIMALTRND
 40
0.0
  9
$DIMAZIN
 70
     0
  9
$DIMDSEP
 70
    44
  9
$DIMATFIT
 70
     3
  9
$DIMFRAC
 70
     0
  9
$DIMLDRBLK
  1

  9
$DIMLUNIT
 70
     2
  9
$DIMLWD
 70
    -2
  9
$DIMLWE
 70
    -2
  9
$DIMTMOVE
 70
     0
  9
$LUNITS
 70
     2
  9
$LUPREC
 70
     2
  9
$SKETCHINC
 40
1.0
  9
$FILLETRAD
 40
10.0
  9
$AUNITS
 70
     0
  9
$AUPREC
 70
     2
  9
$MENU
  1
.
  9
$ELEVATION
 40
0.0
  9
$PELEVATION
 40
0.0
  9
$THICKNESS
 40
0.0
  9
$LIMCHECK
 70
     0
  9
$CHAMFERA
 40
0.0
  9
$CHAMFERB
 40
0.0
  9
$CHAMFERC
 40
0.0
  9
$CHAMFERD
 40
0.0
  9
$SKPOLY
 70
     0
  9
$TDCREATE
 40
2459741.592428611
  9
$TDUCREATE
 40
2459741.467428611
  9
$TDUPDATE
 40
2459741.592430139
  9
$TDUUPDATE
 40
2459741.467430139
  9
$TDINDWG
 40
0.0000000116
  9
$TDUSRTIMER
 40
0.0000000116
  9
$USRTIMER
 70
     1
  9
$ANGBASE
 50
0.0
  9
$ANGDIR
 70
     0
  9
$PDMODE
 70
     0
  9
$PDSIZE
 40
-1.0
  9
$PLINEWID
 40
0.0
  9
$SPLFRAME
 70
     0
  9
$SPLINETYPE
 70
     6
  9
$SPLINESEGS
 70
     8
  9
$HANDSEED
  5
122
  9
$SURFTAB1
 70
     6
  9
$SURFTAB2
 70
     6
  9
$SURFTYPE
 70
     6
  9
$SURFU
 70
     6
  9
$SURFV
 70
     6
  9
$UCSBASE
  2

  9
$UCSNAME
  2

  9
$UCSORG
 10
0.0
 20
0.0
 30
0.0
  9
$UCSXDIR
 10
1.0
 20
0.0
 30
0.0
  9
$UCSYDIR
 10
0.0
 20
1.0
 30
0.0
  9
$UCSORTHOREF
  2

  9
$UCSORTHOVIEW
 70
     0
  9
$UCSORGTOP
 10
0.0
 20
0.0
 30
0.0
  9
$UCSORGBOTTOM
 10
0.0
 20
0.0
 30
0.0
  9
$UCSORGLEFT
 10
0.0
 20
0.0
 30
0.0
  9
$UCSORGRIGHT
 10
0.0
 20
0.0
 30
0.0
  9
$UCSORGFRONT
 10
0.0
 20
0.0
 30
0.0
  9
$UCSORGBACK
 10
0.0
 20
0.0
 30
0.0
  9
$PUCSBASE
  2

  9
$PUCSNAME
  2

  9
$PUCSORG
 10
0.0
 20
0.0
 30
0.0
  9
$PUCSXDIR
 10
1.0
 20
0.0
 30
0.0
  9
$PUCSYDIR
 10
0.0
 20
1.0
 30
0.0
  9
$PUCSORTHOREF
  2

  9
$PUCSORTHOVIEW
 70
     0
  9
$PUCSORGTOP
 10
0.0
 20
0.0
 30
0.0
  9
$PUCSORGBOTTOM
 10
0.0
 20
0.0
 30
0.0
  9
$PUCSORGLEFT
 10
0.0
 20
0.0
 30
0.0
  9
$PUCSORGRIGHT
 10
0.0
 20
0.0
 30
0.0
  9
$PUCSORGFRONT
 10
0.0
 20
0.0
 30
0.0
  9
$PUCSORGBACK
 10
0.0
 20
0.0
 30
0.0
  9
$USERI1
 70
     0
  9
$USERI2
 70
     0
  9
$USERI3
 70
     0
  9
$USERI4
 70
     0
  9
$USERI5
 70
     0
  9
$USERR1
 40
0.0
  9
$USERR2
 40
0.0
  9
$USERR3
 40
0.0
  9
$USERR4
 40
0.0
  9
$USERR5
 40
0.0
  9
$WORLDVIEW
 70
     1
  9
$SHADEDGE
 70
     3
  9
$SHADEDIF
 70
    70
  9
$TILEMODE
 70
     1
  9
$MAXACTVP
 70
    64
  9
$PINSBASE
 10
0.0
 20
0.0
 30
0.0
  9
$PLIMCHECK
 70
     0
  9
$PEXTMIN
 10
1.0000000000E+20
 20
1.0000000000E+20
 30
1.0000000000E+20
  9
$PEXTMAX
 10
-1.0000000000E+20
 20
-1.0000000000E+20
 30
-1.0000000000E+20
  9
$PLIMMIN
 10
0.0
 20
0.0
  9
$PLIMMAX
 10
420.0
 20
297.0
  9
$UNITMODE
 70
     0
  9
$VISRETAIN
 70
     1
  9
$PLINEGEN
 70
     0
  9
$PSLTSCALE
 70
     1
  9
$TREEDEPTH
 70
  3020
  9
$CMLSTYLE
  2
Standard
  9
$CMLJUST
 70
     0
  9
$CMLSCALE
 40
20.0
  9
$PROXYGRAPHICS
 70
     1
  9
$MEASUREMENT
 70
     1
  9
$CELWEIGHT
370
    -1
  9
$ENDCAPS
280
     0
  9
$JOINSTYLE
280
     0
  9
$LWDISPLAY
290
     1
  9
$INSUNITS
 70
     4
  9
$HYPERLINKBASE
  1

  9
$STYLESHEET
  1

  9
$XEDIT
290
     1
  9
$CEPSNTYPE
380
     0
  9
$PSTYLEMODE
290
     1
  9
$FINGERPRINTGUID
  2
{3ac7a650-ab22-4365-9999-afdd6feaae7b}
  9
$VERSIONGUID
  2
{FAEB1C32-E019-11D5-929B-00C0DF256EC4}
  9
$EXTNAMES
290
     1
  9
$PSVPSCALE
 40
0.0
  9
$OLESTARTUP
290
     0
  0
ENDSEC
  0
SECTION
  2
CLASSES
  0
CLASS
  1
ACDBDICTIONARYWDFLT
  2
AcDbDictionaryWithDefault
  3
ObjectDBX Classes
 90
        0
280
     0
281
     0
  0
CLASS
  1
VISUALSTYLE
  2
AcDbVisualStyle
  3
ObjectDBX Classes
 90
     4095
280
     0
281
     0
  0
CLASS
  1
MATERIAL
  2
AcDbMaterial
  3
ObjectDBX Classes
 90
     1153
280
     0
281
     0
  0
CLASS
  1
SCALE
  2
AcDbScale
  3
ObjectDBX Classes
 90
     1153
280
     0
281
     0
  0
CLASS
  1
TABLESTYLE
  2
AcDbTableStyle
  3
ObjectDBX Classes
 90
     4095
280
     0
281
     0
  0
CLASS
  1
MLEADERSTYLE
  2
AcDbMLeaderStyle
  3
ACDB_MLEADERSTYLE_CLASS
 90
     4095
280
     0
281
     0
  0
CLASS
  1
SUN
  2
AcDbSun
  3
SCENEOE
 90
     1153
280
     0
281
     0
  0
CLASS
  1
ACDBPLACEHOLDER
  2
AcDbPlaceHolder
  3
ObjectDBX Classes
 90
        0
280
     0
281
     0
  0
CLASS
  1
LAYOUT
  2
AcDbLayout
  3
ObjectDBX Classes
 90
        0
280
     0
281
     0
  0
ENDSEC
  0
SECTION
  2
TABLES
  0
TABLE
  2
VPORT
  5
8
330
0
100
AcDbSymbolTable
 70
     1
  0
VPORT
  5
29
330
8
100
AcDbSymbolTableRecord
100
AcDbViewportTableRecord
  2
*Active
 70
     0
 10
0.0
 20
0.0
 11
1.0
 21
1.0
 12
139.7
 22
107.95
 13
0.0
 23
0.0
 14
10.0
 24
10.0
 15
10.0
 25
10.0
 16
0.0
 26
0.0
 36
1.0
 17
0.0
 27
0.0
 37
0.0
 40
215.9
 41
1.2941176471
 42
50.0
 43
0.0
 44
0.0
 50
0.0
 51
0.0
 71
     0
 72
  2000
 73
     1
 74
     3
 75
     0
 76
     0
 77
     0
 78
     0
281
     0
 65
     1
110
0.0
120
0.0
130
0.0
111
1.0
121
0.0
131
0.0
112
0.0
122
1.0
132
0.0
 79
     0
146
0.0
  0
ENDTAB
  0
TABLE
  2
LTYPE
  5
5
330
0
100
AcDbSymbolTable
 70
     6
  0
LTYPE
  5
14
330
5
100
AcDbSymbolTableRecord
100
AcDbLinetypeTableRecord
  2
ByBlock
 70
     0
  3

 72
    65
 73
     0
 40
0.0
  0
LTYPE
  5
15
330
5
100
AcDbSymbolTableRecord
100
AcDbLinetypeTableRecord
  2
ByLayer
 70
     0
  3

 72
    65
 73
     0
 40
0.0
  0
LTYPE
  5
16
330
5
100
AcDbSymbolTableRecord
100
AcDbLinetypeTableRecord
  2
Continuous
 70
     0
  3
Solid line
 72
    65
 73
     0
 40
0.0
  0
LTYPE
  5
6E
330
5
100
AcDbSymbolTableRecord
100
AcDbLinetypeTableRecord
  2
HIDDEN
 70
     0
  3
Hidden __ __ __ __ __ __ __ __ __ __ __ __ __ __
 72
    65
 73
     2
 40
1.905
 49
1.27
 74
     0
 49
-0.635
 74
     0
  0
LTYPE
  5
6F
330
5
100
AcDbSymbolTableRecord
100
AcDbLinetypeTableRecord
  2
PHANTOM
 70
     0
  3
Phantom ______  __  __  ______  __  __  ______
 72
    65
 73
     6
 40
12.7
 49
6.35
 74
     0
 49
-1.27
 74
     0
 49
1.27
 74
     0
 49
-1.27
 74
     0
 49
1.27
 74
     0
 49
-1.27
 74
     0
  0
LTYPE
  5
70
330
5
100
AcDbSymbolTableRecord
100
AcDbLinetypeTableRecord
  2
CENTER
 70
     0
  3
Center ____ _ ____ _ ____ _ ____ _ ____ _ ____
 72
    65
 73
     4
 40
10.16
 49
6.35
 74
     0
 49
-1.27
 74
     0
 49
1.27
 74
     0
 49
-1.27
 74
     0
  0
LTYPE
  5
71
330
5
100
AcDbSymbolTableRecord
100
AcDbLinetypeTableRecord
  2
CENTERX2
 70
     0
  3
Center (2x) ________  __  ________  __  _____
 72
    65
 73
     4
 40
20.32
 49
12.7
 74
     0
 49
-2.54
 74
     0
 49
2.54
 74
     0
 49
-2.54
 74
     0
  0
LTYPE
  5
72
330
5
100
AcDbSymbolTableRecord
100
AcDbLinetypeTableRecord
  2
DOT2
 70
     0
  3
Dot (.5x) ........................................
 72
    65
 73
     2
 40
0.635
 49
0.0
 74
     0
 49
-0.635
 74
     0
  0
ENDTAB
  0
TABLE
  2
LAYER
  5
2
330
0
100
AcDbSymbolTable
 70
    17
  0
LAYER
  5
10
330
2
100
AcDbSymbolTableRecord
100
AcDbLayerTableRecord
  2
0
 70
     0
 62
     7
  6
Continuous
370
    -3
390
F
  0
LAYER
  5
73
330
2
100
AcDbSymbolTableRecord
100
AcDbLayerTableRecord
  2
FORMAT
 70
     0
 62
     7
  6
Continuous
370
    -3
390
F
  0
LAYER
  5
74
330
2
100
AcDbSymbolTableRecord
100
AcDbLayerTableRecord
  2
YARDIMCI_GEOMETRI
 70
     0
 62
    -6
  6
Continuous
290
     0
370
    -3
390
F
  0
LAYER
  5
75
330
2
100
AcDbSymbolTableRecord
100
AcDbLayerTableRecord
  2
SAYFA_CERCEVESI
 70
     0
 62
     7
  6
Continuous
370
    25
390
F
  0
LAYER
  5
76
330
2
100
AcDbSymbolTableRecord
100
AcDbLayerTableRecord
  2
ANTET
 70
     0
 62
     7
  6
Continuous
370
    -3
390
F
  0
LAYER
  5
77
330
2
100
AcDbSymbolTableRecord
100
AcDbLayerTableRecord
  2
OLCU
 70
     0
 62
   150
  6
Continuous
370
    -3
390
F
  0
LAYER
  5
78
330
2
100
AcDbSymbolTableRecord
100
AcDbLayerTableRecord
  2
METIN
 70
     0
 62
    96
  6
Continuous
370
    -3
390
F
  0
LAYER
  5
79
330
2
100
AcDbSymbolTableRecord
100
AcDbLayerTableRecord
  2
BALON
 70
     0
 62
     5
  6
Continuous
370
    -3
390
F
  0
LAYER
  5
7A
330
2
100
AcDbSymbolTableRecord
100
AcDbLayerTableRecord
  2
VURGU
 70
     0
 62
     7
  6
Continuous
370
    -3
390
F
  0
LAYER
  5
7B
330
2
100
AcDbSymbolTableRecord
100
AcDbLayerTableRecord
  2
SILIK
 70
     0
 62
     7
  6
Continuous
370
    -3
390
F
  0
LAYER
  5
7C
330
2
100
AcDbSymbolTableRecord
100
AcDbLayerTableRecord
  2
MODEL
 70
     0
 62
     7
  6
Continuous
370
    -3
390
F
  0
LAYER
  5
7D
330
2
100
AcDbSymbolTableRecord
100
AcDbLayerTableRecord
  2
DETAYLANDıRMA
 70
     0
 62
   190
  6
Continuous
370
    -3
390
F
  0
LAYER
  5
7E
330
2
100
AcDbSymbolTableRecord
100
AcDbLayerTableRecord
  2
TOLERANS
 70
     0
 62
   230
  6
Continuous
370
    -3
390
F
  0
LAYER
  5
7F
330
2
100
AcDbSymbolTableRecord
100
AcDbLayerTableRecord
  2
MERKEZ_CIZGILERI
 70
     0
 62
    30
  6
Continuous
370
    -3
390
F
  0
LAYER
  5
80
330
2
100
AcDbSymbolTableRecord
100
AcDbLayerTableRecord
  2
KESIT-DETAY_CIZGILERI
 70
     0
 62
     7
  6
Continuous
370
    -3
390
F
  0
LAYER
  5
81
330
2
100
AcDbSymbolTableRecord
100
AcDbLayerTableRecord
  2
\U+041E\U+0421\U+0415\U+0412\U+042B\U+0415
 70
     0
 62
     7
  6
Continuous
370
    -3
390
F
  0
LAYER
  5
82
330
2
100
AcDbSymbolTableRecord
100
AcDbLayerTableRecord
  2
\U+0412\U+041E\U+0414\U+042F\U+041D\U+042B\U+0415_\U+0417\U+041D\U+0410\U+041A\U+0418
 70
     0
 62
    11
  6
Continuous
370
    -3
390
F
  0
ENDTAB
  0
TABLE
  2
STYLE
  5
3
330
0
100
AcDbSymbolTable
 70
     1
  0
STYLE
  5
11
330
3
100
AcDbSymbolTableRecord
100
AcDbTextStyleTableRecord
  2
Standard
 70
     0
 40
0.0
 41
1.0
 50
0.0
 71
     0
 42
3.5
  3
txt
  4

  0
ENDTAB
  0
TABLE
  2
VIEW
  5
6
330
0
100
AcDbSymbolTable
 70
     0
  0
ENDTAB
  0
TABLE
  2
UCS
  5
7
330
0
100
AcDbSymbolTable
 70
     0
  0
ENDTAB
  0
TABLE
  2
APPID
  5
9
330
0
100
AcDbSymbolTable
 70
     1
  0
APPID
  5
12
330
9
100
AcDbSymbolTableRecord
100
AcDbRegAppTableRecord
  2
ACAD
 70
     0
  0
ENDTAB
  0
TABLE
  2
DIMSTYLE
  5
A
330
0
100
AcDbSymbolTable
 70
     1
100
AcDbDimStyleTable
  0
DIMSTYLE
105
27
330
A
100
AcDbSymbolTableRecord
100
AcDbDimStyleTableRecord
  2
ISO-25
 70
     0
 41
2.5
 42
0.625
 43
3.75
 44
1.25
 73
     0
 74
     0
 77
     1
 78
     8
140
2.5
141
2.5
143
0.0393700787
147
0.625
171
     3
172
     1
178
     0
271
     2
272
     2
274
     3
278
    44
283
     0
284
     8
340
11
  0
ENDTAB
  0
TABLE
  2
BLOCK_RECORD
  5
1
330
0
100
AcDbSymbolTable
 70
     6
  0
BLOCK_RECORD
  5
1F
330
1
100
AcDbSymbolTableRecord
100
AcDbBlockTableRecord
  2
*Model_Space
340
22
  0
BLOCK_RECORD
  5
1B
330
1
100
AcDbSymbolTableRecord
100
AcDbBlockTableRecord
  2
*Paper_Space
340
1E
  0
BLOCK_RECORD
  5
23
330
1
100
AcDbSymbolTableRecord
100
AcDbBlockTableRecord
  2
*Paper_Space0
340
26
  0
BLOCK_RECORD
  5
8F
330
1
100
AcDbSymbolTableRecord
100
AcDbBlockTableRecord
  2
SW_CENTERMARKSYMBOL_0
340
0
102
{BLKREFS
331
9A
102
}
  0
BLOCK_RECORD
  5
9B
330
1
100
AcDbSymbolTableRecord
100
AcDbBlockTableRecord
  2
SW_CENTERMARKSYMBOL_1
340
0
102
{BLKREFS
331
A6
102
}
  0
BLOCK_RECORD
  5
A7
330
1
100
AcDbSymbolTableRecord
100
AcDbBlockTableRecord
  2
SW_CENTERMARKSYMBOL_2
340
0
102
{BLKREFS
331
B2
102
}
  0
BLOCK_RECORD
  5
B3
330
1
100
AcDbSymbolTableRecord
100
AcDbBlockTableRecord
  2
SW_CENTERMARKSYMBOL_3
340
0
102
{BLKREFS
331
BE
102
}
  0
BLOCK_RECORD
  5
BF
330
1
100
AcDbSymbolTableRecord
100
AcDbBlockTableRecord
  2
SW_CENTERMARKSYMBOL_4
340
0
102
{BLKREFS
331
CA
102
}
  0
ENDTAB
  0
ENDSEC
  0
SECTION
  2
BLOCKS
  0
BLOCK
  5
20
330
1F
100
AcDbEntity
  8
0
100
AcDbBlockBegin
  2
*Model_Space
 70
     0
 10
0.0
 20
0.0
 30
0.0
  3
*Model_Space
  1

  0
ENDBLK
  5
21
330
1F
100
AcDbEntity
  8
0
100
AcDbBlockEnd
  0
BLOCK
  5
1C
330
1B
100
AcDbEntity
 67
     1
  8
0
100
AcDbBlockBegin
  2
*Paper_Space
 70
     0
 10
0.0
 20
0.0
 30
0.0
  3
*Paper_Space
  1

  0
ENDBLK
  5
1D
330
1B
100
AcDbEntity
 67
     1
  8
0
100
AcDbBlockEnd
  0
BLOCK
  5
24
330
23
100
AcDbEntity
  8
0
100
AcDbBlockBegin
  2
*Paper_Space0
 70
     0
 10
0.0
 20
0.0
 30
0.0
  3
*Paper_Space0
  1

  0
ENDBLK
  5
25
330
23
100
AcDbEntity
  8
0
100
AcDbBlockEnd
  0
BLOCK
  5
90
330
8F
100
AcDbEntity
  8
0
100
AcDbBlockBegin
  2
SW_CENTERMARKSYMBOL_0
 70
     0
 10
0.0
 20
0.0
 30
0.0
  3
SW_CENTERMARKSYMBOL_0
  1

  0
LINE
  5
92
330
8F
100
AcDbEntity
  8
FORMAT
 62
     0
100
AcDbLine
 10
0.0
 20
0.0
 30
0.0
 11
0.0
 21
2.5
 31
0.0
  0
LINE
  5
93
330
8F
100
AcDbEntity
  8
FORMAT
 62
     0
100
AcDbLine
 10
0.0
 20
0.0
 30
0.0
 11
-2.5
 21
0.0
 31
0.0
  0
LINE
  5
94
330
8F
100
AcDbEntity
  8
FORMAT
 62
     0
100
AcDbLine
 10
0.0
 20
0.0
 30
0.0
 11
0.0
 21
-2.5
 31
0.0
  0
LINE
  5
95
330
8F
100
AcDbEntity
  8
FORMAT
 62
     0
100
AcDbLine
 10
0.0
 20
0.0
 30
0.0
 11
2.5
 21
0.0
 31
0.0
  0
LINE
  5
96
330
8F
100
AcDbEntity
  8
FORMAT
 62
     0
100
AcDbLine
 10
0.0
 20
5.0
 30
0.0
 11
0.0
 21
85.0
 31
0.0
  0
LINE
  5
97
330
8F
100
AcDbEntity
  8
FORMAT
 62
     0
100
AcDbLine
 10
-5.0
 20
0.0
 30
0.0
 11
-85.0
 21
0.0
 31
0.0
  0
LINE
  5
98
330
8F
100
AcDbEntity
  8
FORMAT
 62
     0
100
AcDbLine
 10
0.0
 20
-5.0
 30
0.0
 11
0.0
 21
-85.0
 31
0.0
  0
LINE
  5
99
330
8F
100
AcDbEntity
  8
FORMAT
 62
     0
100
AcDbLine
 10
5.0
 20
0.0
 30
0.0
 11
85.0
 21
0.0
 31
0.0
  0
ENDBLK
  5
91
330
8F
100
AcDbEntity
  8
0
100
AcDbBlockEnd
  0
BLOCK
  5
9C
330
9B
100
AcDbEntity
  8
0
100
AcDbBlockBegin
  2
SW_CENTERMARKSYMBOL_1
 70
     0
 10
0.0
 20
0.0
 30
0.0
  3
SW_CENTERMARKSYMBOL_1
  1

  0
LINE
  5
9E
330
9B
100
AcDbEntity
  8
FORMAT
 62
     0
100
AcDbLine
 10
0.0
 20
0.0
 30
0.0
 11
0.0
 21
2.5
 31
0.0
  0
LINE
  5
9F
330
9B
100
AcDbEntity
  8
FORMAT
 62
     0
100
AcDbLine
 10
0.0
 20
0.0
 30
0.0
 11
-2.5
 21
0.0
 31
0.0
  0
LINE
  5
A0
330
9B
100
AcDbEntity
  8
FORMAT
 62
     0
100
AcDbLine
 10
0.0
 20
0.0
 30
0.0
 11
0.0
 21
-2.5
 31
0.0
  0
LINE
  5
A1
330
9B
100
AcDbEntity
  8
FORMAT
 62
     0
100
AcDbLine
 10
0.0
 20
0.0
 30
0.0
 11
2.5
 21
0.0
 31
0.0
  0
LINE
  5
A2
330
9B
100
AcDbEntity
  8
FORMAT
 62
     0
100
AcDbLine
 10
0.0
 20
5.0
 30
0.0
 11
0.0
 21
11.5
 31
0.0
  0
LINE
  5
A3
330
9B
100
AcDbEntity
  8
FORMAT
 62
     0
100
AcDbLine
 10
-5.0
 20
0.0
 30
0.0
 11
-11.5
 21
0.0
 31
0.0
  0
LINE
  5
A4
330
9B
100
AcDbEntity
  8
FORMAT
 62
     0
100
AcDbLine
 10
0.0
 20
-5.0
 30
0.0
 11
0.0
 21
-11.5
 31
0.0
  0
LINE
  5
A5
330
9B
100
AcDbEntity
  8
FORMAT
 62
     0
100
AcDbLine
 10
5.0
 20
0.0
 30
0.0
 11
11.5
 21
0.0
 31
0.0
  0
ENDBLK
  5
9D
330
9B
100
AcDbEntity
  8
0
100
AcDbBlockEnd
  0
BLOCK
  5
A8
330
A7
100
AcDbEntity
  8
0
100
AcDbBlockBegin
  2
SW_CENTERMARKSYMBOL_2
 70
     0
 10
0.0
 20
0.0
 30
0.0
  3
SW_CENTERMARKSYMBOL_2
  1

  0
LINE
  5
AA
330
A7
100
AcDbEntity
  8
FORMAT
 62
     0
100
AcDbLine
 10
0.0
 20
0.0
 30
0.0
 11
0.0
 21
2.5
 31
0.0
  0
LINE
  5
AB
330
A7
100
AcDbEntity
  8
FORMAT
 62
     0
100
AcDbLine
 10
0.0
 20
0.0
 30
0.0
 11
-2.5
 21
0.0
 31
0.0
  0
LINE
  5
AC
330
A7
100
AcDbEntity
  8
FORMAT
 62
     0
100
AcDbLine
 10
0.0
 20
0.0
 30
0.0
 11
0.0
 21
-2.5
 31
0.0
  0
LINE
  5
AD
330
A7
100
AcDbEntity
  8
FORMAT
 62
     0
100
AcDbLine
 10
0.0
 20
0.0
 30
0.0
 11
2.5
 21
0.0
 31
0.0
  0
LINE
  5
AE
330
A7
100
AcDbEntity
  8
FORMAT
 62
     0
100
AcDbLine
 10
0.0
 20
5.0
 30
0.0
 11
0.0
 21
11.5
 31
0.0
  0
LINE
  5
AF
330
A7
100
AcDbEntity
  8
FORMAT
 62
     0
100
AcDbLine
 10
-5.0
 20
0.0
 30
0.0
 11
-11.5
 21
0.0
 31
0.0
  0
LINE
  5
B0
330
A7
100
AcDbEntity
  8
FORMAT
 62
     0
100
AcDbLine
 10
0.0
 20
-5.0
 30
0.0
 11
0.0
 21
-11.5
 31
0.0
  0
LINE
  5
B1
330
A7
100
AcDbEntity
  8
FORMAT
 62
     0
100
AcDbLine
 10
5.0
 20
0.0
 30
0.0
 11
11.5
 21
0.0
 31
0.0
  0
ENDBLK
  5
A9
330
A7
100
AcDbEntity
  8
0
100
AcDbBlockEnd
  0
BLOCK
  5
B4
330
B3
100
AcDbEntity
  8
0
100
AcDbBlockBegin
  2
SW_CENTERMARKSYMBOL_3
 70
     0
 10
0.0
 20
0.0
 30
0.0
  3
SW_CENTERMARKSYMBOL_3
  1

  0
LINE
  5
B6
330
B3
100
AcDbEntity
  8
FORMAT
 62
     0
100
AcDbLine
 10
0.0
 20
0.0
 30
0.0
 11
0.0
 21
2.5
 31
0.0
  0
LINE
  5
B7
330
B3
100
AcDbEntity
  8
FORMAT
 62
     0
100
AcDbLine
 10
0.0
 20
0.0
 30
0.0
 11
-2.5
 21
0.0
 31
0.0
  0
LINE
  5
B8
330
B3
100
AcDbEntity
  8
FORMAT
 62
     0
100
AcDbLine
 10
0.0
 20
0.0
 30
0.0
 11
0.0
 21
-2.5
 31
0.0
  0
LINE
  5
B9
330
B3
100
AcDbEntity
  8
FORMAT
 62
     0
100
AcDbLine
 10
0.0
 20
0.0
 30
0.0
 11
2.5
 21
0.0
 31
0.0
  0
LINE
  5
BA
330
B3
100
AcDbEntity
  8
FORMAT
 62
     0
100
AcDbLine
 10
0.0
 20
5.0
 30
0.0
 11
0.0
 21
11.5
 31
0.0
  0
LINE
  5
BB
330
B3
100
AcDbEntity
  8
FORMAT
 62
     0
100
AcDbLine
 10
-5.0
 20
0.0
 30
0.0
 11
-11.5
 21
0.0
 31
0.0
  0
LINE
  5
BC
330
B3
100
AcDbEntity
  8
FORMAT
 62
     0
100
AcDbLine
 10
0.0
 20
-5.0
 30
0.0
 11
0.0
 21
-11.5
 31
0.0
  0
LINE
  5
BD
330
B3
100
AcDbEntity
  8
FORMAT
 62
     0
100
AcDbLine
 10
5.0
 20
0.0
 30
0.0
 11
11.5
 21
0.0
 31
0.0
  0
ENDBLK
  5
B5
330
B3
100
AcDbEntity
  8
0
100
AcDbBlockEnd
  0
BLOCK
  5
C0
330
BF
100
AcDbEntity
  8
0
100
AcDbBlockBegin
  2
SW_CENTERMARKSYMBOL_4
 70
     0
 10
0.0
 20
0.0
 30
0.0
  3
SW_CENTERMARKSYMBOL_4
  1

  0
LINE
  5
C2
330
BF
100
AcDbEntity
  8
FORMAT
 62
     0
100
AcDbLine
 10
0.0
 20
0.0
 30
0.0
 11
0.0
 21
2.5
 31
0.0
  0
LINE
  5
C3
330
BF
100
AcDbEntity
  8
FORMAT
 62
     0
100
AcDbLine
 10
0.0
 20
0.0
 30
0.0
 11
-2.5
 21
0.0
 31
0.0
  0
LINE
  5
C4
330
BF
100
AcDbEntity
  8
FORMAT
 62
     0
100
AcDbLine
 10
0.0
 20
0.0
 30
0.0
 11
0.0
 21
-2.5
 31
0.0
  0
LINE
  5
C5
330
BF
100
AcDbEntity
  8
FORMAT
 62
     0
100
AcDbLine
 10
0.0
 20
0.0
 30
0.0
 11
2.5
 21
0.0
 31
0.0
  0
LINE
  5
C6
330
BF
100
AcDbEntity
  8
FORMAT
 62
     0
100
AcDbLine
 10
0.0
 20
5.0
 30
0.0
 11
0.0
 21
11.5
 31
0.0
  0
LINE
  5
C7
330
BF
100
AcDbEntity
  8
FORMAT
 62
     0
100
AcDbLine
 10
-5.0
 20
0.0
 30
0.0
 11
-11.5
 21
0.0
 31
0.0
  0
LINE
  5
C8
330
BF
100
AcDbEntity
  8
FORMAT
 62
     0
100
AcDbLine
 10
0.0
 20
-5.0
 30
0.0
 11
0.0
 21
-11.5
 31
0.0
  0
LINE
  5
C9
330
BF
100
AcDbEntity
  8
FORMAT
 62
     0
100
AcDbLine
 10
5.0
 20
0.0
 30
0.0
 11
11.5
 21
0.0
 31
0.0
  0
ENDBLK
  5
C1
330
BF
100
AcDbEntity
  8
0
100
AcDbBlockEnd
  0
ENDSEC
  0
SECTION
  2
ENTITIES
  0
CIRCLE
  5
83
330
1F
100
AcDbEntity
  8
0
  6
Continuous
 62
     7
370
    25
100
AcDbCircle
 10
137.8667640332
 20
41.0638469371
 30
0.0
 40
10.00000000000003
  0
CIRCLE
  5
84
330
1F
100
AcDbEntity
  8
0
  6
Continuous
 62
     7
370
    25
100
AcDbCircle
 10
137.8667640332
 20
166.0638469371
 30
0.0
 40
10.0
  0
CIRCLE
  5
85
330
1F
100
AcDbEntity
  8
0
  6
Continuous
 62
     7
370
    25
100
AcDbCircle
 10
137.8667640332
 20
103.5638469371
 30
0.0
 40
81.5
  0
CIRCLE
  5
86
330
1F
100
AcDbEntity
  8
0
  6
Continuous
 62
     7
370
    25
100
AcDbCircle
 10
137.8667640332
 20
103.5638469371
 30
0.0
 40
40.0
  0
CIRCLE
  5
87
330
1F
100
AcDbEntity
  8
0
  6
Continuous
 62
     7
370
    25
100
AcDbCircle
 10
200.3667640332
 20
103.5638469371
 30
0.0
 40
10.00000000000003
  0
CIRCLE
  5
88
330
1F
100
AcDbEntity
  8
0
  6
Continuous
 62
     7
370
    25
100
AcDbCircle
 10
75.3667640332
 20
103.5638469371
 30
0.0
 40
10.00000000000001
  0
CIRCLE
  5
89
330
1F
100
AcDbEntity
  8
0
  6
Continuous
 62
     7
370
    25
100
AcDbCircle
 10
137.8667640332
 20
103.5638469371
 30
0.0
 40
39.0
  0
CIRCLE
  5
8A
330
1F
100
AcDbEntity
  8
0
  6
Continuous
 62
     7
370
    25
100
AcDbCircle
 10
137.8667640332
 20
103.5638469371
 30
0.0
 40
82.5
  0
CIRCLE
  5
8B
330
1F
100
AcDbEntity
  8
0
  6
Continuous
 62
     7
370
    25
100
AcDbCircle
 10
137.8667640332
 20
166.0638469371
 30
0.0
 40
9.0
  0
CIRCLE
  5
8C
330
1F
100
AcDbEntity
  8
0
  6
Continuous
 62
     7
370
    25
100
AcDbCircle
 10
75.3667640332
 20
103.5638469371
 30
0.0
 40
9.000000000000014
  0
CIRCLE
  5
8D
330
1F
100
AcDbEntity
  8
0
  6
Continuous
 62
     7
370
    25
100
AcDbCircle
 10
200.3667640332
 20
103.5638469371
 30
0.0
 40
9.000000000000028
  0
CIRCLE
  5
8E
330
1F
100
AcDbEntity
  8
0
  6
Continuous
 62
     7
370
    25
100
AcDbCircle
 10
137.8667640332
 20
41.0638469371
 30
0.0
 40
9.000000000000028
  0
INSERT
  5
9A
330
1F
100
AcDbEntity
  8
FORMAT
 62
     7
100
AcDbBlockReference
  2
SW_CENTERMARKSYMBOL_0
 10
137.8667640332
 20
103.5638469371
 30
0.0
  0
INSERT
  5
A6
330
1F
100
AcDbEntity
  8
FORMAT
 62
     7
100
AcDbBlockReference
  2
SW_CENTERMARKSYMBOL_1
 10
137.8667640332
 20
166.0638469371
 30
0.0
  0
INSERT
  5
B2
330
1F
100
AcDbEntity
  8
FORMAT
 62
     7
100
AcDbBlockReference
  2
SW_CENTERMARKSYMBOL_2
 10
200.3667640332
 20
103.5638469371
 30
0.0
  0
INSERT
  5
BE
330
1F
100
AcDbEntity
  8
FORMAT
 62
     7
100
AcDbBlockReference
  2
SW_CENTERMARKSYMBOL_3
 10
137.8667640332
 20
41.0638469371
 30
0.0
  0
INSERT
  5
CA
330
1F
100
AcDbEntity
  8
FORMAT
 62
     7
100
AcDbBlockReference
  2
SW_CENTERMARKSYMBOL_4
 10
75.3667640332
 20
103.5638469371
 30
0.0
  0
LINE
  5
CB
330
1F
100
AcDbEntity
  8
0
  6
Continuous
 62
     7
370
    25
100
AcDbLine
 10
-30.4039880159
 20
186.0638469371
 30
0.0
 11
-46.4039880159
 21
186.0638469371
 31
0.0
  0
LINE
  5
CC
330
1F
100
AcDbEntity
  8
0
  6
Continuous
 62
     7
370
    25
100
AcDbLine
 10
-46.4039880159
 20
21.0638469371
 30
0.0
 11
-30.4039880159
 21
21.0638469371
 31
0.0
  0
ARC
  5
CD
330
1F
100
AcDbEntity
  8
0
  6
Continuous
 62
     7
370
    25
100
AcDbCircle
 10
-30.4039880159
 20
22.0638469371
 30
0.0
 40
1.0
100
AcDbArc
 50
270.0
 51
0.0
  0
ARC
  5
CE
330
1F
100
AcDbEntity
  8
0
  6
Continuous
 62
     7
370
    25
100
AcDbCircle
 10
-30.4039880159
 20
185.0638469371
 30
0.0
 40
1.0
100
AcDbArc
 50
0.0
 51
90.0
  0
ARC
  5
CF
330
1F
100
AcDbEntity
  8
0
  6
Continuous
 62
     7
370
    25
100
AcDbCircle
 10
-46.4039880159
 20
22.0638469371
 30
0.0
 40
1.0
100
AcDbArc
 50
180.0
 51
270.0
  0
ARC
  5
D0
330
1F
100
AcDbEntity
  8
0
  6
Continuous
 62
     7
370
    25
100
AcDbCircle
 10
-46.4039880159
 20
185.0638469371
 30
0.0
 40
1.0
100
AcDbArc
 50
90.0
 51
180.0
  0
LINE
  5
D1
330
1F
100
AcDbEntity
  8
0
  6
Continuous
 62
     7
370
    25
100
AcDbLine
 10
-29.4039880159
 20
103.5638469371
 30
0.0
 11
-29.4039880159
 21
22.0638469371
 31
0.0
  0
LINE
  5
D2
330
1F
100
AcDbEntity
  8
0
  6
Continuous
 62
     7
370
    25
100
AcDbLine
 10
-29.4039880159
 20
185.0638469371
 30
0.0
 11
-29.4039880159
 21
103.5638469371
 31
0.0
  0
LINE
  5
D3
330
1F
100
AcDbEntity
  8
0
  6
Continuous
 62
     7
370
    25
100
AcDbLine
 10
-47.4039880159
 20
103.5638469371
 30
0.0
 11
-47.4039880159
 21
185.0638469371
 31
0.0
  0
LINE
  5
D4
330
1F
100
AcDbEntity
  8
0
  6
Continuous
 62
     7
370
    25
100
AcDbLine
 10
-47.4039880159
 20
22.0638469371
 30
0.0
 11
-47.4039880159
 21
103.5638469371
 31
0.0
  0
LINE
  5
D5
330
1F
100
AcDbEntity
  8
0
  6
Continuous
 62
     1
370
    25
100
AcDbLine
 10
-46.4039880159
 20
103.5638469371
 30
0.0
 11
-46.4039880159
 21
21.0638469371
 31
0.0
  0
LINE
  5
D6
330
1F
100
AcDbEntity
  8
0
  6
Continuous
 62
     1
370
    25
100
AcDbLine
 10
-46.4039880159
 20
186.0638469371
 30
0.0
 11
-46.4039880159
 21
103.5638469371
 31
0.0
  0
LINE
  5
D7
330
1F
100
AcDbEntity
  8
0
  6
Continuous
 62
     1
370
    25
100
AcDbLine
 10
-30.4039880159
 20
103.5638469371
 30
0.0
 11
-30.4039880159
 21
186.0638469371
 31
0.0
  0
LINE
  5
D8
330
1F
100
AcDbEntity
  8
0
  6
Continuous
 62
     1
370
    25
100
AcDbLine
 10
-30.4039880159
 20
21.0638469371
 30
0.0
 11
-30.4039880159
 21
103.5638469371
 31
0.0
  0
LINE
  5
D9
330
1F
100
AcDbEntity
  8
0
  6
Continuous
 62
     7
370
    25
100
AcDbLine
 10
304.6597619256
 20
21.0638469371
 30
0.0
 11
320.6597619256
 21
21.0638469371
 31
0.0
  0
LINE
  5
DA
330
1F
100
AcDbEntity
  8
0
  6
Continuous
 62
     7
370
    25
100
AcDbLine
 10
320.6597619256
 20
186.0638469371
 30
0.0
 11
304.6597619256
 21
186.0638469371
 31
0.0
  0
ARC
  5
DB
330
1F
100
AcDbEntity
  8
0
  6
Continuous
 62
     7
370
    25
100
AcDbCircle
 10
304.6597619256
 20
185.0638469371
 30
0.0
 40
1.0
100
AcDbArc
 50
90.0
 51
180.0
  0
ARC
  5
DC
330
1F
100
AcDbEntity
  8
0
  6
Continuous
 62
     7
370
    25
100
AcDbCircle
 10
304.6597619256
 20
22.0638469371
 30
0.0
 40
1.0
100
AcDbArc
 50
180.0
 51
270.0
  0
ARC
  5
DD
330
1F
100
AcDbEntity
  8
0
  6
Continuous
 62
     7
370
    25
100
AcDbCircle
 10
320.6597619256
 20
185.0638469371
 30
0.0
 40
1.0
100
AcDbArc
 50
0.0
 51
90.0
  0
ARC
  5
DE
330
1F
100
AcDbEntity
  8
0
  6
Continuous
 62
     7
370
    25
100
AcDbCircle
 10
320.6597619256
 20
22.0638469371
 30
0.0
 40
1.0
100
AcDbArc
 50
270.0
 51
0.0
  0
LINE
  5
DF
330
1F
100
AcDbEntity
  8
0
  6
Continuous
 62
     7
370
    25
100
AcDbLine
 10
303.6597619256
 20
22.0638469371
 30
0.0
 11
303.6597619256
 21
185.0638469371
 31
0.0
  0
LINE
  5
E0
330
1F
100
AcDbEntity
  8
0
  6
Continuous
 62
     7
370
    25
100
AcDbLine
 10
321.6597619256
 20
185.0638469371
 30
0.0
 11
321.6597619256
 21
22.0638469371
 31
0.0
  0
LINE
  5
E1
330
1F
100
AcDbEntity
  8
0
  6
Continuous
 62
     1
370
    25
100
AcDbLine
 10
320.6597619256
 20
21.0638469371
 30
0.0
 11
320.6597619256
 21
186.0638469371
 31
0.0
  0
LINE
  5
E2
330
1F
100
AcDbEntity
  8
0
  6
Continuous
 62
     1
370
    25
100
AcDbLine
 10
304.6597619256
 20
186.0638469371
 30
0.0
 11
304.6597619256
 21
21.0638469371
 31
0.0
  0
LINE
  5
E3
330
1F
100
AcDbEntity
  8
0
  6
Continuous
 62
     7
370
    25
100
AcDbLine
 10
220.3667640332
 20
252.5959297759
 30
0.0
 11
220.3667640332
 21
268.5959297759
 31
0.0
  0
LINE
  5
E4
330
1F
100
AcDbEntity
  8
0
  6
Continuous
 62
     7
370
    25
100
AcDbLine
 10
55.3667640332
 20
268.5959297759
 30
0.0
 11
55.3667640332
 21
252.5959297759
 31
0.0
  0
ARC
  5
E5
330
1F
100
AcDbEntity
  8
0
  6
Continuous
 62
     7
370
    25
100
AcDbCircle
 10
56.3667640332
 20
252.5959297759
 30
0.0
 40
1.0
100
AcDbArc
 50
180.0
 51
270.0
  0
ARC
  5
E6
330
1F
100
AcDbEntity
  8
0
  6
Continuous
 62
     7
370
    25
100
AcDbCircle
 10
219.3667640332
 20
252.5959297759
 30
0.0
 40
1.0
100
AcDbArc
 50
270.0
 51
0.0
  0
ARC
  5
E7
330
1F
100
AcDbEntity
  8
0
  6
Continuous
 62
     7
370
    25
100
AcDbCircle
 10
56.3667640332
 20
268.5959297759
 30
0.0
 40
1.0
100
AcDbArc
 50
90.0
 51
180.0
  0
ARC
  5
E8
330
1F
100
AcDbEntity
  8
0
  6
Continuous
 62
     7
370
    25
100
AcDbCircle
 10
219.3667640332
 20
268.5959297759
 30
0.0
 40
1.0
100
AcDbArc
 50
0.0
 51
90.0
  0
LINE
  5
E9
330
1F
100
AcDbEntity
  8
0
  6
Continuous
 62
     7
370
    25
100
AcDbLine
 10
219.3667640332
 20
251.5959297759
 30
0.0
 11
56.3667640332
 21
251.5959297759
 31
0.0
  0
LINE
  5
EA
330
1F
100
AcDbEntity
  8
0
  6
Continuous
 62
     7
370
    25
100
AcDbLine
 10
56.3667640332
 20
269.5959297759
 30
0.0
 11
219.3667640332
 21
269.5959297759
 31
0.0
  0
LINE
  5
EB
330
1F
100
AcDbEntity
  8
0
  6
Continuous
 62
     1
370
    25
100
AcDbLine
 10
220.3667640332
 20
268.5959297759
 30
0.0
 11
55.3667640332
 21
268.5959297759
 31
0.0
  0
LINE
  5
EC
330
1F
100
AcDbEntity
  8
0
  6
Continuous
 62
     1
370
    25
100
AcDbLine
 10
55.3667640332
 20
252.5959297759
 30
0.0
 11
220.3667640332
 21
252.5959297759
 31
0.0
  0
LINE
  5
ED
330
1F
100
AcDbEntity
  8
0
  6
Continuous
 62
     7
370
    25
100
AcDbLine
 10
55.3667640332
 20
-76.8475292665
 30
0.0
 11
55.3667640332
 21
-92.8475292665
 31
0.0
  0
LINE
  5
EE
330
1F
100
AcDbEntity
  8
0
  6
Continuous
 62
     7
370
    25
100
AcDbLine
 10
220.3667640332
 20
-92.8475292665
 30
0.0
 11
220.3667640332
 21
-76.8475292665
 31
0.0
  0
ARC
  5
EF
330
1F
100
AcDbEntity
  8
0
  6
Continuous
 62
     7
370
    25
100
AcDbCircle
 10
219.3667640332
 20
-76.8475292665
 30
0.0
 40
1.0
100
AcDbArc
 50
0.0
 51
90.0
  0
ARC
  5
F0
330
1F
100
AcDbEntity
  8
0
  6
Continuous
 62
     7
370
    25
100
AcDbCircle
 10
56.3667640332
 20
-76.8475292665
 30
0.0
 40
1.0
100
AcDbArc
 50
90.0
 51
180.0
  0
ARC
  5
F1
330
1F
100
AcDbEntity
  8
0
  6
Continuous
 62
     7
370
    25
100
AcDbCircle
 10
219.3667640332
 20
-92.8475292665
 30
0.0
 40
1.000000000000014
100
AcDbArc
 50
270.0
 51
0.0
  0
ARC
  5
F2
330
1F
100
AcDbEntity
  8
0
  6
Continuous
 62
     7
370
    25
100
AcDbCircle
 10
56.3667640332
 20
-92.8475292665
 30
0.0
 40
1.000000000000014
100
AcDbArc
 50
180.0
 51
270.0
  0
LINE
  5
F3
330
1F
100
AcDbEntity
  8
0
  6
Continuous
 62
     7
370
    25
100
AcDbLine
 10
56.3667640332
 20
-75.8475292665
 30
0.0
 11
219.3667640332
 21
-75.8475292665
 31
0.0
  0
LINE
  5
F4
330
1F
100
AcDbEntity
  8
0
  6
Continuous
 62
     7
370
    25
100
AcDbLine
 10
219.3667640332
 20
-93.8475292665
 30
0.0
 11
56.3667640332
 21
-93.8475292665
 31
0.0
  0
LINE
  5
F5
330
1F
100
AcDbEntity
  8
0
  6
Continuous
 62
     1
370
    25
100
AcDbLine
 10
55.3667640332
 20
-92.8475292665
 30
0.0
 11
220.3667640332
 21
-92.8475292665
 31
0.0
  0
LINE
  5
F6
330
1F
100
AcDbEntity
  8
0
  6
Continuous
 62
     1
370
    25
100
AcDbLine
 10
220.3667640332
 20
-76.8475292665
 30
0.0
 11
55.3667640332
 21
-76.8475292665
 31
0.0
  0
SPLINE
  5
F7
330
1F
100
AcDbEntity
  8
0
  6
Continuous
 62
     7
370
    25
100
AcDbSpline
210
0.0
220
0.0
230
1.0
 70
     8
 71
     3
 72
    78
 73
    74
 74
     0
 42
0.00000001
 43
0.00000001
 40
0.0
 40
0.0
 40
0.0
 40
0.0
 40
0.0002795910272629
 40
0.0145060745505244
 40
0.0287453047930587
 40
0.0430009165872708
 40
0.0572752495393844
 40
0.0715693238596202
 40
0.0858829637066265
 40
0.1002150234438129
 40
0.1145636642244777
 40
0.1289266329353812
 40
0.1433015083406912
 40
0.1576858948748298
 40
0.1720775585240519
 40
0.1864745091993361
 40
0.200875039460613
 40
0.215277731189336
 40
0.2296814410959164
 40
0.2440850975036681
 40
0.2584880134623495
 40
0.2728897461101338
 40
0.2872899932141348
 40
0.3016885658953578
 40
0.3160853652476818
 40
0.3304803627964547
 40
0.3448735844918753
 40
0.3592650978142645
 40
0.3736550015352309
 40
0.3880434176948562
 40
0.4024304853959557
 40
0.4168163560677412
 40
0.4312011899036487
 40
0.4455851532269915
 40
0.4599684165811184
 40
0.4743511533771066
 40
0.4887335389615864
 40
0.5031157499906057
 40
0.5174979640128939
 40
0.5318803190369392
 40
0.5462629744113883
 40
0.5606461088740027
 40
0.5750299010156045
 40
0.5894145287893683
 40
0.6038001687762188
 40
0.6181869950993077
 40
0.6325751778630422
 40
0.6469648809657084
 40
0.6613562591015809
 40
0.6757494537280632
 40
0.6901445877262965
 40
0.7045417584305834
 40
0.7189410286461608
 40
0.7333424152220522
 40
0.7477458747066189
 40
0.7621512856056842
 40
0.7765584268146307
 40
0.7909669519484099
 40
0.8053763596059095
 40
0.8197857814141457
 40
0.8341941267478307
 40
0.8486001334976608
 40
0.8630022455706572
 40
0.8773986018855136
 40
0.8917870503321003
 40
0.9061651985450047
 40
0.9205305135937056
 40
0.9348804799066239
 40
0.9492128176018905
 40
0.9635257512996357
 40
0.9778183035200545
 40
0.9920905703642702
 40
1.0
 40
1.0
 40
1.0
 40
1.0
 10
354.0085990022444
 20
-7.99724179421403
 30
0.0
 10
353.9961741292869
 20
-7.992470621291756
 30
0.0
 10
353.3515320777645
 20
-7.744926947300224
 30
0.0
 10
352.0164733949563
 20
-7.372762870283614
 30
0.0
 10
350.0024720144943
 20
-6.892376333996878
 30
0.0
 10
347.9242181204654
 20
-6.558329810742322
 30
0.0
 10
345.794792786616
 20
-6.351707802422668
 30
0.0
 10
343.6152105271288
 20
-6.278322802777126
 30
0.0
 10
341.3899484786018
 20
-6.337074481988822
 30
0.0
 10
339.1227644739143
 20
-6.528404829434383
 30
0.0
 10
336.8177916236064
 20
-6.851999351021709
 30
0.0
 10
334.4792076091474
 20
-7.307388239592566
 30
0.0
 10
332.1112843793052
 20
-7.893781350860316
 30
0.0
 10
329.7183384334065
 20
-8.61011892511114
 30
0.0
 10
327.3047135078011
 20
-9.455071182720653
 30
0.0
 10
324.8747614088477
 20
-10.42705518246852
 30
0.0
 10
322.432829885891
 20
-11.5242479789463
 30
0.0
 10
319.9832540267742
 20
-12.7445999404102
 30
0.0
 10
317.5303606813268
 20
-14.0858407645488
 30
0.0
 10
315.0784550074322
 20
-15.54549239778799
 30
0.0
 10
312.6318137640105
 20
-17.12087963660668
 30
0.0
 10
310.1946731414508
 20
-18.80914529551371
 30
0.0
 10
307.7712360972363
 20
-20.60725143569643
 30
0.0
 10
305.365673067735
 20
-22.51198214628447
 30
0.0
 10
302.9821179914327
 20
-24.51994855365847
 30
0.0
 10
300.6246637848064
 20
-26.6275938094228
 30
0.0
 10
298.2973573299801
 20
-28.83119820817074
 30
0.0
 10
296.0041940541615
 20
-31.12688453973751
 30
0.0
 10
293.7491121879875
 20
-33.5106237431406
 30
0.0
 10
291.5359867884696
 20
-35.9782409006859
 30
0.0
 10
289.368623606147
 20
-38.52542158948976
 30
0.0
 10
287.2507528678708
 20
-41.14771859243831
 30
0.0
 10
285.1860230379255
 20
-43.84055896000474
 30
0.0
 10
283.177994611841
 20
-46.59925140714476
 30
0.0
 10
281.2301339897142
 20
-49.4189940247399
 30
0.0
 10
279.3458074693405
 20
-52.294882281943
 30
0.0
 10
277.5282753938744
 20
-55.22191729391303
 30
0.0
 10
275.7806864843905
 20
-58.19501432766469
 30
0.0
 10
274.10607394105
 20
-61.20900871539583
 30
0.0
 10
272.5073490569172
 20
-64.2586660505117
 30
0.0
 10
270.9872953419932
 20
-67.3386926124815
 30
0.0
 10
269.5485625633727
 20
-70.44374755694032
 30
0.0
 10
268.1936633454323
 20
-73.56845081328343
 30
0.0
 10
266.9249697885422
 20
-76.7073910581994
 30
0.0
 10
265.7447096941643
 20
-79.85513506965532
 30
0.0
 10
264.6549631186643
 20
-83.00623706508533
 30
0.0
 10
263.6576592638758
 20
-86.155247980391
 30
0.0
 10
262.7545737082534
 20
-89.2967246421578
 30
0.0
 10
261.947325976992
 20
-92.4252387802167
 30
0.0
 10
261.237377442003
 20
-95.53538582182897
 30
0.0
 10
260.6260295324667
 20
-98.62179340256402
 30
0.0
 10
260.1144222229816
 20
-101.6791295229438
 30
0.0
 10
259.7035327481527
 20
-104.7021102750717
 30
0.0
 10
259.3941744688279
 20
-107.6855070612893
 30
0.0
 10
259.1869957852502
 20
-110.6241532297946
 30
0.0
 10
259.0824789556629
 20
-113.5129500635131
 30
0.0
 10
259.0809386362988
 20
-116.346872083471
 30
0.0
 10
259.1825199114003
 20
-119.1209716718932
 30
0.0
 10
259.3871946939182
 20
-121.8303718914856
 30
0.0
 10
259.6947555420355
 20
-124.4702717402535
 30
0.0
 10
260.1048089497943
 20
-127.035956718648
 30
0.0
 10
260.6167699296633
 20
-129.5228136254119
 30
0.0
 10
261.2298546375927
 20
-131.9263348497865
 30
0.0
 10
261.9430687824894
 20
-134.2421224188168
 30
0.0
 10
262.7551999377231
 20
-136.4658960776904
 30
0.0
 10
263.6647965341236
 20
-138.59352650309
 30
0.0
 10
264.6702021424022
 20
-140.6209973105239
 30
0.0
 10
265.7693992324762
 20
-142.54465681442
 30
0.0
 10
266.9605904344853
 20
-144.360412001022
 30
0.0
 10
268.2400721948916
 20
-146.0668761711682
 30
0.0
 10
269.6102420176138
 20
-147.6537880979579
 30
0.0
 10
270.8366140503124
 20
-148.9242846350194
 30
0.0
 10
271.6378215873044
 20
-149.6178635631256
 30
0.0
 10
271.9235118474333
 20
-149.8651761946747
 30
0.0
  0
LINE
  5
F8
330
1F
100
AcDbEntity
  8
0
  6
Continuous
 62
     7
370
    25
100
AcDbLine
 10
370.2755498477
 20
-16.7829655809
 30
0.0
 11
358.9618413487
 21
-10.2517006864
 31
0.0
  0
LINE
  5
F9
330
1F
100
AcDbEntity
  8
0
  6
Continuous
 62
     7
370
    25
100
AcDbLine
 10
276.4685459062
 20
-153.1497629792
 30
0.0
 11
287.7822544052
 21
-159.6810278738
 31
0.0
  0
SPLINE
  5
FA
330
1F
100
AcDbEntity
  8
0
  6
Continuous
 62
     7
370
    25
100
AcDbSpline
210
0.0
220
0.0
230
1.0
 70
     8
 71
     3
 72
    61
 73
    57
 74
     0
 42
0.00000001
 43
0.00000001
 40
0.0
 40
0.0
 40
0.0
 40
0.0
 40
0.0165764829386236
 40
0.0351069504508555
 40
0.0536585736945741
 40
0.0722344694702496
 40
0.0908360346515889
 40
0.1094630997671186
 40
0.1281142192522
 40
0.1467870300154901
 40
0.1654786153810602
 40
0.1841858278401858
 40
0.202905544336266
 40
0.2216348461838198
 40
0.2403711289328583
 40
0.2591121548229668
 40
0.2778560629011101
 40
0.2966013510511671
 40
0.3153466236496901
 40
0.3340909610293804
 40
0.3528337784157028
 40
0.3715746756282114
 40
0.390313401379766
 40
0.4090498226362464
 40
0.4277838989840974
 40
0.446515661618582
 40
0.4652451964061176
 40
0.4839726304276411
 40
0.5026981214286949
 40
0.5214218496545778
 40
0.540144011615193
 40
0.5588648153925859
 40
0.5775844771680996
 40
0.5963032187024035
 40
0.615021265549259
 40
0.6337388458228478
 40
0.6524561893690136
 40
0.6711735272138982
 40
0.6898910421400448
 40
0.7086089383088775
 40
0.727327448331093
 40
0.7460468046477884
 40
0.7647672389020569
 40
0.7834889809988025
 40
0.8022122577139651
 40
0.8209372906923255
 40
0.8396642936390304
 40
0.8583934684672009
 40
0.8771250001118955
 40
0.8958590496596844
 40
0.9145957453743272
 40
0.9333351711263862
 40
0.952077351665555
 40
0.9708222341223832
 40
0.9895696651138145
 40
1.0
 40
1.0
 40
1.0
 40
1.0
 10
292.8976802205701
 20
-161.9853394410549
 30
0.0
 10
293.4781049680984
 20
-162.1731673752669
 30
0.0
 10
294.7073731383956
 20
-162.5709638200305
 30
0.0
 10
296.6589500912214
 20
-163.0189644474783
 30
0.0
 10
298.7321133784342
 20
-163.3642525317199
 30
0.0
 10
300.8601573337392
 20
-163.574783994259
 30
0.0
 10
303.0375544823165
 20
-163.6540722205273
 30
0.0
 10
305.2610484454946
 20
-163.6007015299469
 30
0.0
 10
307.5265618642981
 20
-163.4148918168958
 30
0.0
 10
309.8300542719829
 20
-163.0967652681708
 30
0.0
 10
312.167328361162
 20
-162.6468283056602
 30
0.0
 10
314.5341210998025
 20
-162.0658463078154
 30
0.0
 10
316.9261158367979
 20
-161.3548711664506
 30
0.0
 10
319.3389699802356
 20
-160.5152208979917
 30
0.0
 10
321.7683316690615
 20
-159.548468453432
 30
0.0
 10
324.2098528219811
 20
-158.4564270380565
 30
0.0
 10
326.6591976909386
 20
-157.2411371434704
 30
0.0
 10
329.1120390946205
 20
-155.9048600569804
 30
0.0
 10
331.5640707518348
 20
-154.4500654747939
 30
0.0
 10
334.0110146811223
 20
-152.8794205866137
 30
0.0
 10
336.4486328756662
 20
-151.1957752562704
 30
0.0
 10
338.8727211072525
 20
-149.4021599340147
 30
0.0
 10
341.2791075162399
 20
-147.5017832530977
 30
0.0
 10
343.6636565648274
 20
-145.4980270155349
 30
0.0
 10
346.022273539474
 20
-143.3944412066025
 30
0.0
 10
348.3509095444991
 20
-141.1947388848243
 30
0.0
 10
350.645566907442
 20
-138.9027908410012
 30
0.0
 10
352.902304909137
 20
-136.5226199577143
 30
0.0
 10
355.1172457526429
 20
-134.0583952297862
 30
0.0
 10
357.2865806911107
 20
-131.514425427704
 30
0.0
 10
359.406576242807
 20
-128.8951524014508
 30
0.0
 10
361.4735804302302
 20
-126.205144032959
 30
0.0
 10
363.4840289886324
 20
-123.4490868527251
 30
0.0
 10
365.4344514968355
 20
-120.6317783409533
 30
0.0
 10
367.3214773897938
 20
-117.7581189367708
 30
0.0
 10
369.1418418179643
 20
-114.833103780971
 30
0.0
 10
370.8923913229658
 20
-111.8618142194767
 30
0.0
 10
372.5700878383845
 20
-108.8494117250354
 30
0.0
 10
374.1720148806612
 20
-105.8011280462187
 30
0.0
 10
375.6953835463072
 20
-102.7222546281857
 30
0.0
 10
377.1375384126002
 20
-99.61813060531135
 30
0.0
 10
378.495961115593
 20
-96.49413455105119
 30
0.0
 10
379.7682736531102
 20
-93.35567667838772
 30
0.0
 10
380.9522421674255
 20
-90.20818948932397
 30
0.0
 10
382.0457804262194
 20
-87.05711842314967
 30
0.0
 10
383.0469528678767
 20
-83.90791261904097
 30
0.0
 10
383.9539776763748
 20
-80.7660155705712
 30
0.0
 10
384.7652281354936
 20
-77.6368567318709
 30
0.0
 10
385.4792388093812
 20
-74.52584037473109
 30
0.0
 10
386.0946921625421
 20
-71.43834579335159
 30
0.0
 10
386.6104767530328
 20
-68.37968654881158
 30
0.0
 10
387.0254769831319
 20
-65.35522434922822
 30
0.0
 10
387.3393638975066
 20
-62.36990779495094
 30
0.0
 10
387.5496485791951
 20
-59.42996048653306
 30
0.0
 10
387.6459658940772
 20
-56.96454447922465
 30
0.0
 10
387.6549081545839
 20
-55.49035331521958
 30
0.0
 10
387.6581047931517
 20
-54.96336617057927
 30
0.0
  0
SPLINE
  5
FB
330
1F
100
AcDbEntity
  8
0
  6
Continuous
 62
     7
370
    25
100
AcDbSpline
210
0.0
220
0.0
230
1.0
 70
     8
 71
     3
 72
    24
 73
    20
 74
     0
 42
0.00000001
 43
0.00000001
 40
0.0
 40
0.0
 40
0.0
 40
0.0
 40
0.0327411912493951
 40
0.0948993045849344
 40
0.1570658269552498
 40
0.2192322118689052
 40
0.2813937507080658
 40
0.3435449476880185
 40
0.4056790351749532
 40
0.4677879297523024
 40
0.5298622979745891
 40
0.5918917831613382
 40
0.6538654452489793
 40
0.7157724530277432
 40
0.7776030363965969
 40
0.8393496532256396
 40
0.9010082560671114
 40
0.962579473562649
 40
1.0
 40
1.0
 40
1.0
 40
1.0
 10
387.6581047931517
 20
-54.96336617057927
 30
0.0
 10
387.6552283623305
 20
-54.46766875418351
 30
0.0
 10
387.6468911188095
 20
-53.03090551175334
 30
0.0
 10
387.5542625550964
 20
-50.69851890376204
 30
0.0
 10
387.346425885285
 20
-47.99137344984965
 30
0.0
 10
387.0343111363521
 20
-45.35461797397285
 30
0.0
 10
386.6200992026438
 20
-42.79206703225371
 30
0.0
 10
386.1039077102595
 20
-40.30858767817538
 30
0.0
 10
385.4866563659868
 20
-37.90861395319425
 30
0.0
 10
384.7693142277477
 20
-35.59655769578455
 30
0.0
 10
383.9531123979107
 20
-33.37668859698964
 30
0.0
 10
383.0395090856405
 20
-31.25313203693112
 30
0.0
 10
382.0301737159776
 20
-29.22989348214935
 30
0.0
 10
380.9271245278616
 20
-27.31062878595651
 30
0.0
 10
379.7322017658582
 20
-25.49937463953338
 30
0.0
 10
378.4489929273574
 20
-23.79768024669132
 30
0.0
 10
377.0755714439281
 20
-22.21514886398808
 30
0.0
 10
375.8195791456957
 20
-20.92357193822744
 30
0.0
 10
374.9886081974518
 20
-20.20932394418534
 30
0.0
 10
374.674487351591
 20
-19.93932631729235
 30
0.0
  0
SPLINE
  5
FC
330
1F
100
AcDbEntity
  8
0
  6
Continuous
 62
     7
370
    25
100
AcDbSpline
210
0.0
220
0.0
230
1.0
 70
     8
 71
     3
 72
    14
 73
    10
 74
     0
 42
0.00000001
 43
0.00000001
 40
0.0
 40
0.0
 40
0.0
 40
0.0
 40
0.1505747804740903
 40
0.3107027900894855
 40
0.4637630776893714
 40
0.6263828946059952
 40
0.7845991303881577
 40
0.94094320182886
 40
1.0
 40
1.0
 40
1.0
 40
1.0
 10
366.3983144946639
 20
-48.39733970363296
 30
0.0
 10
366.5350009507637
 20
-48.4825364241034
 30
0.0
 10
366.8170459462401
 20
-48.65833517787407
 30
0.0
 10
367.1710774058
 20
-49.05696637442524
 30
0.0
 10
367.4875158796786
 20
-49.56898473798977
 30
0.0
 10
367.736766177213
 20
-50.19681713948127
 30
0.0
 10
367.9070830596723
 20
-50.93893680003055
 30
0.0
 10
367.9740925112225
 20
-51.59190505178833
 30
0.0
 10
367.9790704532251
 20
-51.99533009503288
 30
0.0
 10
367.9804352634819
 20
-52.10593777920339
 30
0.0
  0
SPLINE
  5
FD
330
1F
100
AcDbEntity
  8
0
  6
Continuous
 62
     7
370
    25
100
AcDbSpline
210
0.0
220
0.0
230
1.0
 70
     8
 71
     3
 72
    27
 73
    23
 74
     0
 42
0.00000001
 43
0.00000001
 40
0.0
 40
0.0
 40
0.0
 40
0.0
 40
0.0269486944244357
 40
0.0786516491698569
 40
0.1305178087219816
 40
0.1825470722637173
 40
0.2347256011774944
 40
0.2870187945279505
 40
0.3393833530538072
 40
0.3917726545809347
 40
0.4441303857943349
 40
0.4964006250058766
 40
0.5485354212996649
 40
0.6004899592568386
 40
0.6522292329325298
 40
0.7037424938533471
 40
0.7550717238138346
 40
0.8063471207460375
 40
0.8577907280322306
 40
0.9099386411525104
 40
0.9637109890823643
 40
1.0
 40
1.0
 40
1.0
 40
1.0
 10
367.9804352634819
 20
-52.10593777920339
 30
0.0
 10
367.9779004049022
 20
-52.26141432610486
 30
0.0
 10
367.9705022428778
 20
-52.71518350053827
 30
0.0
 10
367.8868349734587
 20
-53.5157700276538
 30
0.0
 10
367.6970544003566
 20
-54.50989228003861
 30
0.0
 10
367.4122784245648
 20
-55.53442640554404
 30
0.0
 10
367.0373971334691
 20
-56.5707569835247
 30
0.0
 10
366.5772209361045
 20
-57.60167431098323
 30
0.0
 10
366.0389508914927
 20
-58.609595707361
 30
0.0
 10
365.4313600263127
 20
-59.577455337083
 30
0.0
 10
364.764830109172
 20
-60.48891086265927
 30
0.0
 10
364.0511141732678
 20
-61.32876585890175
 30
0.0
 10
363.3031305367308
 20
-62.0833279959655
 30
0.0
 10
362.5347666692977
 20
-62.74073289623057
 30
0.0
 10
361.7606677273751
 20
-63.29130356081161
 30
0.0
 10
360.9959033351641
 20
-63.72795406315682
 30
0.0
 10
360.2553640072416
 20
-64.04676986204963
 30
0.0
 10
359.5535464569129
 20
-64.24669794106735
 30
0.0
 10
358.901427568326
 20
-64.33197907800769
 30
0.0
 10
358.3087739122921
 20
-64.30282225892857
 30
0.0
 10
357.8307770827724
 20
-64.19758388977404
 30
0.0
 10
357.5763519338756
 20
-64.05764857345062
 30
0.0
 10
357.4738347486566
 20
-64.00126352344908
 30
0.0
  0
SPLINE
  5
FE
330
1F
100
AcDbEntity
  8
0
  6
Continuous
 62
     7
370
    25
100
AcDbSpline
210
0.0
220
0.0
230
1.0
 70
     8
 71
     3
 72
    14
 73
    10
 74
     0
 42
0.00000001
 43
0.00000001
 40
0.0
 40
0.0
 40
0.0
 40
0.0
 40
0.1505747804741679
 40
0.3107027900895503
 40
0.4637630776894452
 40
0.6263828946060742
 40
0.7845991303882269
 40
0.9409432018289337
 40
1.0
 40
1.0
 40
1.0
 40
1.0
 10
322.2041406705047
 20
-124.9438939409448
 30
0.0
 10
322.3408271266046
 20
-125.0290906614154
 30
0.0
 10
322.622872122081
 20
-125.2048894151861
 30
0.0
 10
322.976903581641
 20
-125.6035206117374
 30
0.0
 10
323.2933420555196
 20
-126.1155389753019
 30
0.0
 10
323.542592353054
 20
-126.7433713767935
 30
0.0
 10
323.7129092355132
 20
-127.4854910373428
 30
0.0
 10
323.7799186870634
 20
-128.1384592891005
 30
0.0
 10
323.7848966290659
 20
-128.5418843323449
 30
0.0
 10
323.7862614393227
 20
-128.6524920165153
 30
0.0
  0
SPLINE
  5
FF
330
1F
100
AcDbEntity
  8
0
  6
Continuous
 62
     7
370
    25
100
AcDbSpline
210
0.0
220
0.0
230
1.0
 70
     8
 71
     3
 72
    27
 73
    23
 74
     0
 42
0.00000001
 43
0.00000001
 40
0.0
 40
0.0
 40
0.0
 40
0.0
 40
0.0269486944244357
 40
0.0786516491698751
 40
0.1305178087219951
 40
0.1825470722637348
 40
0.2347256011775081
 40
0.2870187945279691
 40
0.3393833530538211
 40
0.3917726545809475
 40
0.4441303857943463
 40
0.4964006250058876
 40
0.5485354212996802
 40
0.6004899592568477
 40
0.6522292329325432
 40
0.7037424938533594
 40
0.7550717238138467
 40
0.8063471207460553
 40
0.8577907280322452
 40
0.9099386411525237
 40
0.9637109890823784
 40
1.0
 40
1.0
 40
1.0
 40
1.0
 10
323.7862614393227
 20
-128.6524920165153
 30
0.0
 10
323.7837265807431
 20
-128.8079685634168
 30
0.0
 10
323.7763284187187
 20
-129.2617377378503
 30
0.0
 10
323.6926611492995
 20
-130.062324264966
 30
0.0
 10
323.5028805761975
 20
-131.0564465173508
 30
0.0
 10
323.2181046004056
 20
-132.0809806428563
 30
0.0
 10
322.8432233093099
 20
-133.1173112208369
 30
0.0
 10
322.3830471119452
 20
-134.1482285482955
 30
0.0
 10
321.8447770673334
 20
-135.1561499446732
 30
0.0
 10
321.2371862021535
 20
-136.1240095743952
 30
0.0
 10
320.5706562850127
 20
-137.0354650999714
 30
0.0
 10
319.8569403491085
 20
-137.8753200962139
 30
0.0
 10
319.1089567125715
 20
-138.6298822332776
 30
0.0
 10
318.3405928451383
 20
-139.2872871335427
 30
0.0
 10
317.5664939032158
 20
-139.8378577981237
 30
0.0
 10
316.8017295110047
 20
-140.2745083004688
 30
0.0
 10
316.0611901830822
 20
-140.5933240993616
 30
0.0
 10
315.3593726327535
 20
-140.7932521783793
 30
0.0
 10
314.7072537441666
 20
-140.8785333153196
 30
0.0
 10
314.1146000881328
 20
-140.8493764962405
 30
0.0
 10
313.6366032586131
 20
-140.7441381270859
 30
0.0
 10
313.3821781097163
 20
-140.6042028107625
 30
0.0
 10
313.2796609244974
 20
-140.547817760761
 30
0.0
  0
SPLINE
  5
100
330
1F
100
AcDbEntity
  8
0
  6
Continuous
 62
     7
370
    25
100
AcDbSpline
210
0.0
220
0.0
230
1.0
 70
     8
 71
     3
 72
    20
 73
    16
 74
     0
 42
0.00000001
 43
0.00000001
 40
0.0
 40
0.0
 40
0.0
 40
0.0
 40
0.0057259417948744
 40
0.0962458160939588
 40
0.1864422329085038
 40
0.2762231500841358
 40
0.3655733616209763
 40
0.4545337351025305
 40
0.5431745918767996
 40
0.6315741074966019
 40
0.719804973315267
 40
0.8079281399974133
 40
0.8959912046426082
 40
0.9793497459326118
 40
1.0
 40
1.0
 40
1.0
 40
1.0
 10
338.9571737332808
 20
-49.14736014164795
 30
0.0
 10
338.9797353379775
 20
-49.1643402505183
 30
0.0
 10
339.3589672851766
 20
-49.44975433507175
 30
0.0
 10
340.0231949739827
 20
-50.11651880081754
 30
0.0
 10
340.9390668843452
 20
-51.15286977548281
 30
0.0
 10
341.760945568028
 20
-52.31463524663025
 30
0.0
 10
342.4966526208244
 20
-53.57979305647117
 30
0.0
 10
343.1412057402123
 20
-54.94806436571664
 30
0.0
 10
343.6934771661809
 20
-56.41339858083582
 30
0.0
 10
344.151595514139
 20
-57.97114966036407
 30
0.0
 10
344.5139882821927
 20
-59.61606075485491
 30
0.0
 10
344.7795115379399
 20
-61.34244778194289
 30
0.0
 10
344.9430613754106
 20
-63.11299331968424
 30
0.0
 10
344.995989557667
 20
-64.47155600729727
 30
0.0
 10
344.9988891751692
 20
-65.22331320765458
 30
0.0
 10
344.9994648749253
 20
-65.37256959631884
 30
0.0
  0
SPLINE
  5
101
330
1F
100
AcDbEntity
  8
0
  6
Continuous
 62
     7
370
    25
100
AcDbSpline
210
0.0
220
0.0
230
1.0
 70
     8
 71
     3
 72
    45
 73
    41
 74
     0
 42
0.00000001
 43
0.00000001
 40
0.0
 40
0.0
 40
0.0
 40
0.0
 40
0.0139815012717497
 40
0.0406193736258547
 40
0.067267771877178
 40
0.0939247426994952
 40
0.1205914748742621
 40
0.1472682745782729
 40
0.1739548361258469
 40
0.2006504400849439
 40
0.2273540940272897
 40
0.2540646301903627
 40
0.2807807715064931
 40
0.3075011748612761
 40
0.3342244582993287
 40
0.3609492172377222
 40
0.3876740335385687
 40
0.4143970198221024
 40
0.4411167316412073
 40
0.4678317393485049
 40
0.4945406235382496
 40
0.5212419914884374
 40
0.5479345048006123
 40
0.5746169234079279
 40
0.6012881728275458
 40
0.6279474437258515
 40
0.6545943355027699
 40
0.6812290584472258
 40
0.707852711438572
 40
0.7344676527973755
 40
0.7610779780580862
 40
0.7876882955840343
 40
0.814306378592434
 40
0.8409440211433777
 40
0.8676169986515162
 40
0.8943452034042823
 40
0.9211519035257512
 40
0.9480614876684288
 40
0.975095057188074
 40
1.0
 40
1.0
 40
1.0
 40
1.0
 10
344.9994648749253
 20
-65.37256959631884
 30
0.0
 10
344.9967011634691
 20
-65.70901263412242
 30
0.0
 10
344.9886719664573
 20
-66.68645455475321
 30
0.0
 10
344.8992040166146
 20
-68.34970181464466
 30
0.0
 10
344.698107988417
 20
-70.37300841326004
 30
0.0
 10
344.3962595590122
 20
-72.44009951099713
 30
0.0
 10
343.9962378182773
 20
-74.54207356113724
 30
0.0
 10
343.4988388006975
 20
-76.67135926682123
 30
0.0
 10
342.9058387645012
 20
-78.81988654596188
 30
0.0
 10
342.2192485043254
 20
-80.97959916992505
 30
0.0
 10
341.4415017194066
 20
-83.14236630657958
 30
0.0
 10
340.5753903716194
 20
-85.30005245923489
 30
0.0
 10
339.6240660186053
 20
-87.44454261988824
 30
0.0
 10
338.5910220799732
 20
-89.56777753360153
 30
0.0
 10
337.4800801295023
 20
-91.66178472493732
 30
0.0
 10
336.2953742016407
 20
-93.71870942794804
 30
0.0
 10
335.0413420203521
 20
-95.73083299475651
 30
0.0
 10
333.7227030336966
 20
-97.69061488351005
 30
0.0
 10
332.3444405571762
 20
-99.59072258565726
 30
0.0
 10
330.9117748100452
 20
-101.4240705461545
 30
0.0
 10
329.4301511601425
 20
-103.1838371258194
 30
0.0
 10
327.9052208209662
 20
-104.8634922871427
 30
0.0
 10
326.3428202853021
 20
-106.4568254982031
 30
0.0
 10
324.7489494441306
 20
-107.9579735769974
 30
0.0
 10
323.1297479867874
 20
-109.3614484992257
 30
0.0
 10
321.4914695178639
 20
-110.6621651050067
 30
0.0
 10
319.8404526243255
 20
-111.8554684843311
 30
0.0
 10
318.1830879171952
 20
-112.9371605143449
 30
0.0
 10
316.5257798162825
 20
-113.9035246427165
 30
0.0
 10
314.8749019134914
 20
-114.7513469805049
 30
0.0
 10
313.2367813612677
 20
-115.4779154664659
 30
0.0
 10
311.6176334865329
 20
-116.0810392674489
 30
0.0
 10
310.0234772982805
 20
-116.559062849628
 30
0.0
 10
308.4600428217121
 20
-116.9108172972098
 30
0.0
 10
306.9326466328785
 20
-117.1356666119812
 30
0.0
 10
305.4463692222193
 20
-117.2329937638829
 30
0.0
 10
304.0052035995708
 20
-117.2036458720528
 30
0.0
 10
302.6152379901388
 20
-117.0439251158153
 30
0.0
 10
301.3105169494822
 20
-116.7752676110114
 30
0.0
 10
300.5033894125596
 20
-116.496269660278
 30
0.0
 10
300.1163651362256
 20
-116.3624878537583
 30
0.0
  0
SPLINE
  5
102
330
1F
100
AcDbEntity
  8
0
  6
Continuous
 62
     7
370
    25
100
AcDbSpline
210
0.0
220
0.0
230
1.0
 70
     8
 71
     3
 72
    50
 73
    46
 74
     0
 42
0.00000001
 43
0.00000001
 40
0.0
 40
0.0
 40
0.0
 40
0.0
 40
0.0130212272380986
 40
0.037120911833436
 40
0.0611310424665901
 40
0.08507275171933
 40
0.1089660834596954
 40
0.1328280570177133
 40
0.1566720862202013
 40
0.1805081494641181
 40
0.2043426140688905
 40
0.2281795106606334
 40
0.2520223001837481
 40
0.2758729758706092
 40
0.2997324680377886
 40
0.323600956617365
 40
0.3474781039627512
 40
0.3713632236574356
 40
0.3952554000323253
 40
0.4191535707972357
 40
0.4430565826738699
 40
0.4669632276498774
 40
0.4908722656194728
 40
0.5147824377549586
 40
0.5386924236891332
 40
0.5626005720870835
 40
0.5865056026124842
 40
0.6104062369026518
 40
0.6343012074358053
 40
0.6581892734747912
 40
0.6820692476270546
 40
0.7059400378476586
 40
0.7298007112979653
 40
0.7536505884979033
 40
0.7774893786164041
 40
0.8013173692820402
 40
0.8251356863256031
 40
0.8489466390276279
 40
0.8727541621264319
 40
0.8965623440452014
 40
0.9203788185444451
 40
0.9442146359259662
 40
0.9680844574489372
 40
0.9920065915876967
 40
1.0
 40
1.0
 40
1.0
 40
1.0
 10
304.7656505190103
 20
-117.1975779023055
 30
0.0
 10
304.629236373226
 20
-116.9764807202816
 30
0.0
 10
304.2403469555164
 20
-116.3461769209193
 30
0.0
 10
303.6944709223304
 20
-115.1886587040075
 30
0.0
 10
303.1252433863453
 20
-113.7415269474527
 30
0.0
 10
302.6540689627328
 20
-112.1959044582552
 30
0.0
 10
302.2772441801299
 20
-110.5637882803028
 30
0.0
 10
301.9975978944361
 20
-108.8488575341001
 30
0.0
 10
301.8159664872858
 20
-107.0574888906487
 30
0.0
 10
301.7333982017947
 20
-105.1958562188159
 30
0.0
 10
301.7504911520186
 20
-103.2706967597817
 30
0.0
 10
301.8675127274212
 20
-101.2890331427372
 30
0.0
 10
302.0843375119011
 20
-99.25816495449807
 30
0.0
 10
302.4004519491224
 20
-97.18560610064557
 30
0.0
 10
302.8149424359736
 20
-95.07907969835348
 30
0.0
 10
303.3264948299411
 20
-92.94647180133236
 30
0.0
 10
303.933398054004
 20
-90.79578891377925
 30
0.0
 10
304.6335516134792
 20
-88.63511773386146
 30
0.0
 10
305.4244755701484
 20
-86.47258738978954
 30
0.0
 10
306.3033223213341
 20
-84.31633370944962
 30
0.0
 10
307.2668896661847
 20
-82.1744652005141
 30
0.0
 10
308.3116348540394
 20
-80.05503040895049
 30
0.0
 10
309.4336894223275
 20
-77.96598638771519
 30
0.0
 10
310.6288738744765
 20
-75.91516949705604
 30
0.0
 10
311.8927078464633
 20
-73.91027436254217
 30
0.0
 10
313.2204319723434
 20
-71.95881276994908
 30
0.0
 10
314.6070266969264
 20
-70.06808292468892
 30
0.0
 10
316.0472376962349
 20
-68.24513305701677
 30
0.0
 10
317.5355880884673
 20
-66.49674368347202
 30
0.0
 10
319.0663980997759
 20
-64.82939960982662
 30
0.0
 10
320.633805802981
 20
-63.24926204147237
 30
0.0
 10
322.2317892264324
 20
-61.76214073524088
 30
0.0
 10
323.8541902354812
 20
-60.37346623406409
 30
0.0
 10
325.494740864161
 20
-59.08826205990762
 30
0.0
 10
327.1470925742626
 20
-57.91111789070707
 30
0.0
 10
328.8048506476656
 20
-56.8461614217572
 30
0.0
 10
330.4616105028582
 20
-55.89704065293888
 30
0.0
 10
332.1110137570866
 20
-55.06687857884361
 30
0.0
 10
333.7467175345272
 20
-54.35837169790371
 30
0.0
 10
335.3626200554499
 20
-53.77341666845453
 30
0.0
 10
336.9524019186766
 20
-53.31439854042736
 30
0.0
 10
338.5116380984712
 20
-52.97940374718529
 30
0.0
 10
340.0303908958555
 20
-52.78026919418664
 30
0.0
 10
341.1888494361205
 20
-52.69879786558445
 30
0.0
 10
341.8214663100741
 20
-52.72648600285711
 30
0.0
 10
341.9799083930791
 20
-52.73342063632111
 30
0.0
  0
SPLINE
  5
103
330
1F
100
AcDbEntity
  8
0
  6
Continuous
 62
     7
370
    25
100
AcDbSpline
210
0.0
220
0.0
230
1.0
 70
     8
 71
     3
 72
    14
 73
    10
 74
     0
 42
0.00000001
 43
0.00000001
 40
0.0
 40
0.0
 40
0.0
 40
0.0
 40
0.1505747804740881
 40
0.3107027900894764
 40
0.4637630776893797
 40
0.6263828946060183
 40
0.7845991303881732
 40
0.9409432018288763
 40
0.9999999999999999
 40
0.9999999999999999
 40
0.9999999999999999
 40
0.9999999999999999
 10
322.2041406705109
 20
-22.87629245522972
 30
0.0
 10
322.3408271266107
 20
-22.96148917570017
 30
0.0
 10
322.6228721220871
 20
-23.13728792947084
 30
0.0
 10
322.976903581647
 20
-23.53591912602199
 30
0.0
 10
323.2933420555256
 20
-24.04793748958654
 30
0.0
 10
323.5425923530601
 20
-24.6757698910781
 30
0.0
 10
323.7129092355193
 20
-25.41788955162738
 30
0.0
 10
323.7799186870695
 20
-26.07085780338515
 30
0.0
 10
323.7848966290722
 20
-26.47428284662968
 30
0.0
 10
323.7862614393289
 20
-26.58489053080015
 30
0.0
  0
SPLINE
  5
104
330
1F
100
AcDbEntity
  8
0
  6
Continuous
 62
     7
370
    25
100
AcDbSpline
210
0.0
220
0.0
230
1.0
 70
     8
 71
     3
 72
    27
 73
    23
 74
     0
 42
0.00000001
 43
0.00000001
 40
0.0
 40
0.0
 40
0.0
 40
0.0
 40
0.0269486944244356
 40
0.0786516491698747
 40
0.1305178087219941
 40
0.1825470722637327
 40
0.234725601177505
 40
0.2870187945279654
 40
0.339383353053817
 40
0.3917726545809477
 40
0.4441303857943468
 40
0.4964006250058874
 40
0.5485354212996761
 40
0.6004899592568506
 40
0.6522292329325408
 40
0.7037424938533565
 40
0.7550717238138432
 40
0.8063471207460466
 40
0.857790728032239
 40
0.9099386411525203
 40
0.9637109890823714
 40
0.9999999999999999
 40
0.9999999999999999
 40
0.9999999999999999
 40
0.9999999999999999
 10
323.7862614393289
 20
-26.58489053080015
 30
0.0
 10
323.7837265807493
 20
-26.7403670777016
 30
0.0
 10
323.7763284187249
 20
-27.19413625213514
 30
0.0
 10
323.6926611493057
 20
-27.99472277925078
 30
0.0
 10
323.5028805762036
 20
-28.98884503163567
 30
0.0
 10
323.2181046004117
 20
-30.01337915714108
 30
0.0
 10
322.8432233093162
 20
-31.04970973512175
 30
0.0
 10
322.3830471119514
 20
-32.08062706258026
 30
0.0
 10
321.8447770673396
 20
-33.08854845895803
 30
0.0
 10
321.2371862021596
 20
-34.05640808868
 30
0.0
 10
320.5706562850189
 20
-34.96786361425625
 30
0.0
 10
319.8569403491146
 20
-35.80771861049876
 30
0.0
 10
319.1089567125777
 20
-36.56228074756243
 30
0.0
 10
318.3405928451445
 20
-37.21968564782752
 30
0.0
 10
317.566493903222
 20
-37.77025631240849
 30
0.0
 10
316.8017295110109
 20
-38.20690681475367
 30
0.0
 10
316.0611901830885
 20
-38.52572261364648
 30
0.0
 10
315.3593726327597
 20
-38.72565069266415
 30
0.0
 10
314.7072537441729
 20
-38.81093182960448
 30
0.0
 10
314.114600088139
 20
-38.78177501052531
 30
0.0
 10
313.6366032586193
 20
-38.67653664137077
 30
0.0
 10
313.3821781097225
 20
-38.53660132504736
 30
0.0
 10
313.2796609245036
 20
-38.48021627504583
 30
0.0
  0
SPLINE
  5
105
330
1F
100
AcDbEntity
  8
0
  6
Continuous
 62
     7
370
    25
100
AcDbSpline
210
0.0
220
0.0
230
1.0
 70
     8
 71
     3
 72
    14
 73
    10
 74
     0
 42
0.00000001
 43
0.00000001
 40
0.0
 40
0.0
 40
0.0
 40
0.0
 40
0.1505747804740666
 40
0.3107027900894508
 40
0.4637630776893493
 40
0.6263828946059745
 40
0.784599130388139
 40
0.9409432018288425
 40
1.0
 40
1.0
 40
1.0
 40
1.0
 10
278.0099668463517
 20
-99.42284669254164
 30
0.0
 10
278.1466533024516
 20
-99.50804341301208
 30
0.0
 10
278.4286982979279
 20
-99.68384216678274
 30
0.0
 10
278.7827297574878
 20
-100.0824733633338
 30
0.0
 10
279.0991682313664
 20
-100.5944917268984
 30
0.0
 10
279.3484185289009
 20
-101.2223241283899
 30
0.0
 10
279.5187354113602
 20
-101.9644437889391
 30
0.0
 10
279.5857448629104
 20
-102.617412040697
 30
0.0
 10
279.590722804913
 20
-103.0208370839415
 30
0.0
 10
279.5920876151698
 20
-103.1314447681121
 30
0.0
  0
SPLINE
  5
106
330
1F
100
AcDbEntity
  8
0
  6
Continuous
 62
     7
370
    25
100
AcDbSpline
210
0.0
220
0.0
230
1.0
 70
     8
 71
     3
 72
    27
 73
    23
 74
     0
 42
0.00000001
 43
0.00000001
 40
0.0
 40
0.0
 40
0.0
 40
0.0
 40
0.0269486944244356
 40
0.0786516491698747
 40
0.1305178087219926
 40
0.1825470722637342
 40
0.2347256011775059
 40
0.2870187945279651
 40
0.3393833530538193
 40
0.3917726545809465
 40
0.4441303857943448
 40
0.4964006250058851
 40
0.5485354212996751
 40
0.6004899592568489
 40
0.6522292329325401
 40
0.7037424938533573
 40
0.7550717238138465
 40
0.8063471207460512
 40
0.8577907280322423
 40
0.9099386411525247
 40
0.9637109890823778
 40
1.0
 40
1.0
 40
1.0
 40
1.0
 10
279.5920876151698
 20
-103.1314447681121
 30
0.0
 10
279.5895527565901
 20
-103.2869213150135
 30
0.0
 10
279.5821545945657
 20
-103.7406904894471
 30
0.0
 10
279.4984873251466
 20
-104.5412770165627
 30
0.0
 10
279.3087067520445
 20
-105.5353992689476
 30
0.0
 10
279.0239307762526
 20
-106.559933394453
 30
0.0
 10
278.649049485157
 20
-107.5962639724337
 30
0.0
 10
278.1888732877923
 20
-108.6271812998922
 30
0.0
 10
277.6506032431805
 20
-109.6351026962699
 30
0.0
 10
277.0430123780005
 20
-110.6029623259919
 30
0.0
 10
276.3764824608597
 20
-111.5144178515681
 30
0.0
 10
275.6627665249555
 20
-112.3542728478106
 30
0.0
 10
274.9147828884186
 20
-113.1088349848743
 30
0.0
 10
274.1464190209854
 20
-113.7662398851394
 30
0.0
 10
273.3723200790628
 20
-114.3168105497204
 30
0.0
 10
272.6075556868518
 20
-114.7534610520656
 30
0.0
 10
271.8670163589293
 20
-115.0722768509584
 30
0.0
 10
271.1651988086006
 20
-115.2722049299761
 30
0.0
 10
270.5130799200136
 20
-115.3574860669164
 30
0.0
 10
269.9204262639798
 20
-115.3283292478372
 30
0.0
 10
269.4424294344602
 20
-115.2230908786827
 30
0.0
 10
269.1880042855634
 20
-115.0831555623593
 30
0.0
 10
269.0854871003444
 20
-115.0267705123578
 30
0.0
  0
LWPOLYLINE
  5
107
330
1F
100
AcDbEntity
  8
0
  6
Continuous
 62
     7
370
    25
100
AcDbPolyline
 90
      142
 70
   128
 43
0.0
 10
374.637289513
 20
-48.0238972201
 10
374.5800807892
 20
-45.0924158493
 10
374.4085682006
 20
-42.23280645
 10
374.1230922696
 20
-39.4507465118
 10
373.724219782
 20
-36.7517595572
 10
373.2127426624
 20
-34.1412041751
 10
372.5896764013
 20
-31.6242633814
 10
371.8562580389
 20
-29.2059343292
 10
371.0139437097
 20
-26.8910183869
 10
370.0644057506
 20
-24.6841116059
 10
369.0095293815
 20
-22.5895955952
 10
367.8514089618
 20
-20.6116288226
 10
366.5923438322
 20
-18.754138358
 10
365.2348337502
 20
-17.0208120767
 10
363.7815739262
 20
-15.4150913377
 10
362.2354496732
 20
-13.9401641508
 10
360.5995306778
 20
-12.5989588474
 10
358.8770649056
 20
-11.3941382666
 10
357.0714721531
 20
-10.3280944681
 10
355.1863372575
 20
-9.4029439831
 10
353.2254029797
 20
-8.6205236124
 10
351.1925625731
 20
-7.982386779
 10
349.0918520542
 20
-7.4898004447
 10
346.9274421893
 20
-7.143742594
 10
344.7036302139
 20
-6.9449002928
 10
342.4248313007
 20
-6.893668324
 10
340.095569794
 20
-6.9901484039
 10
337.7204702271
 20
-7.2341489804
 10
335.3042481402
 20
-7.6251856127
 10
332.8517007186
 20
-8.162481934
 10
330.3676972683
 20
-8.844971192
 10
327.857169548
 20
-9.6712983676
 10
325.3251019783
 20
-10.6398228646
 10
322.7765217449
 20
-11.7486217672
 10
320.216488818
 20
-12.995493658
 10
317.650085906
 20
-14.3779629881
 10
315.0824083642
 20
-15.8932849927
 10
312.5185540788
 20
-17.5384511402
 10
309.9636133452
 20
-19.3101951055
 10
307.4226587616
 20
-21.204999255
 10
304.9007351582
 20
-23.2191016304
 10
302.4028495809
 20
-25.3485034179
 10
299.9339613502
 20
-27.5889768873
 10
297.4989722153
 20
-29.936073786
 10
295.1027166216
 20
-32.3851341703
 10
292.7499521128
 20
-34.9312956575
 10
290.4453498851
 20
-37.5695030797
 10
288.1934855129
 20
-40.2945185202
 10
285.9988298644
 20
-43.1009317131
 10
283.8657402254
 20
-45.9831707849
 10
281.7984516477
 20
-48.9355133165
 10
279.8010685415
 20
-51.9520977053
 10
277.8775565262
 20
-55.0269348021
 10
276.0317345567
 20
-58.1539198025
 10
274.2672673417
 20
-61.3268443672
 10
272.5876580676
 20
-64.5394089482
 10
270.996241443
 20
-67.7852352959
 10
269.4961770785
 20
-71.0578791226
 10
268.0904432129
 20
-74.3508428967
 10
266.7818308007
 20
-77.6575887437
 10
265.5729379707
 20
-80.9715514256
 10
264.4661648677
 20
-84.2861513764
 10
263.4637088873
 20
-87.5948077646
 10
262.567560313
 20
-90.8909515592
 10
261.779498365
 20
-94.168038572
 10
261.1010876671
 20
-97.4195624498
 10
260.5336751411
 20
-100.6390675931
 10
260.0783873321
 20
-103.8201619724
 10
259.7361281717
 20
-106.9565298192
 10
259.507577184
 20
-110.0419441656
 10
259.3931881357
 20
-113.0702792069
 10
259.3931881357
 20
-116.0355224642
 10
259.507577184
 20
-118.9317867215
 10
259.7361281717
 20
-121.7533217143
 10
260.0783873321
 20
-124.4945255459
 10
260.5336751411
 20
-127.1499558099
 10
261.1010876671
 20
-129.7143403954
 10
261.779498365
 20
-132.182587954
 10
262.567560313
 20
-134.5497980087
 10
263.4637088873
 20
-136.8112706831
 10
264.4661648677
 20
-138.9625160326
 10
265.5729379707
 20
-140.9992629585
 10
266.7818308007
 20
-142.9174676884
 10
268.0904432129
 20
-144.7133218045
 10
269.4961770785
 20
-146.3832598045
 10
270.996241443
 20
-147.9239661811
 10
272.5876580676
 20
-149.3323820045
 10
274.2672673417
 20
-150.6057109954
 10
276.0317345567
 20
-151.741425077
 10
277.8775565262
 20
-152.737269394
 10
279.8010685415
 20
-153.5912667898
 10
281.7984516477
 20
-154.3017217315
 10
283.8657402254
 20
-154.8672236767
 10
285.9988298644
 20
-155.2866498736
 10
288.1934855129
 20
-155.5591675903
 10
290.4453498851
 20
-155.6842357681
 10
292.7499521128
 20
-155.6616060957
 10
295.1027166216
 20
-155.4913235022
 10
297.4989722153
 20
-155.173726068
 10
299.9339613502
 20
-154.7094443534
 10
302.4028495809
 20
-154.0994001466
 10
304.9007351582
 20
-153.3448046342
 10
307.4226587616
 20
-152.4471559954
 10
309.9636133452
 20
-151.4082364288
 10
312.5185540788
 20
-150.2301086128
 10
315.0824083642
 20
-148.9151116113
 10
317.650085906
 20
-147.465856229
 10
320.216488818
 20
-145.8852198283
 10
322.7765217449
 20
-144.1763406166
 10
325.3251019783
 20
-142.3426114152
 10
327.857169548
 20
-140.3876729239
 10
330.3676972683
 20
-138.315406492
 10
332.8517007186
 20
-136.1299264127
 10
335.3042481402
 20
-133.8355717544
 10
337.7204702271
 20
-131.4368977458
 10
340.095569794
 20
-128.9386667323
 10
342.4248313007
 20
-126.3458387203
 10
344.7036302139
 20
-123.6635615297
 10
346.9274421893
 20
-120.8971605736
 10
349.0918520542
 20
-118.0521282851
 10
351.1925625731
 20
-115.1341132124
 10
353.2254029797
 20
-112.1489088043
 10
355.1863372575
 20
-109.1024419079
 10
357.0714721531
 20
-106.0007610013
 10
358.8770649056
 20
-102.8500241846
 10
360.5995306778
 20
-99.6564869543
 10
362.2354496732
 20
-96.4264897829
 10
363.7815739262
 20
-93.1664455308
 10
365.2348337502
 20
-89.8828267141
 10
366.5923438322
 20
-86.582152654
 10
367.8514089618
 20
-83.2709765334
 10
369.0095293815
 20
-79.9558723859
 10
370.0644057506
 20
-76.6434220439
 10
371.0139437097
 20
-73.340202071
 10
371.8562580389
 20
-70.0527707047
 10
372.5896764013
 20
-66.7876548357
 10
373.2127426624
 20
-63.5513370493
 10
373.724219782
 20
-60.3502427549
 10
374.1230922696
 20
-57.1907274288
 10
374.4085682006
 20
-54.0790639964
 10
374.5800807892
 20
-51.0214303773
 10
374.637289513
 20
-48.0238972201
  0
ARC
  5
108
330
1F
100
AcDbEntity
  8
0
  6
Continuous
 62
     7
370
    25
100
AcDbCircle
 10
290.3382972712
 20
-129.1226129145
 30
0.0
 40
27.74169718139528
100
AcDbArc
 50
228.6730087151
 51
250.4666861621
  0
ARC
  5
109
330
1F
100
AcDbEntity
  8
0
  6
Continuous
 62
     7
370
    25
100
AcDbCircle
 10
345.0888090247
 20
-34.2833460959
 30
0.0
 40
27.74716799841673
100
AcDbArc
 50
48.8679620867
 51
70.9960413625
  0
ARC
  5
10A
330
1F
100
AcDbEntity
  8
0
  6
Continuous
 62
     7
370
    25
100
AcDbCircle
 10
356.3635217848
 20
-40.8564121387
 30
0.0
 40
27.8042326632528
100
AcDbArc
 50
49.063083506
 51
59.9764124827
  0
ARC
  5
10B
330
1F
100
AcDbEntity
  8
0
  6
Continuous
 62
     7
370
    25
100
AcDbCircle
 10
301.6836185279
 20
-135.5714112179
 30
0.0
 40
27.83022708787954
100
AcDbArc
 50
240.0326804622
 51
251.3325931977
  0
LWPOLYLINE
  5
10C
330
1F
100
AcDbEntity
  8
0
  6
Continuous
 62
     7
370
    25
100
AcDbPolyline
 90
       50
 70
   128
 43
0.0
 10
324.0791546581
 20
-128.2442879606
 10
324.0211012891
 20
-129.3219706714
 10
323.8478944169
 20
-130.448984855
 10
323.5623780934
 20
-131.6068249697
 10
323.1692404889
 20
-132.7764793128
 10
322.6749369119
 20
-133.9387421923
 10
322.0875838134
 20
-135.0745292839
 10
321.4168255152
 20
-136.1651909949
 10
320.67367585
 20
-137.1928186902
 10
319.8703373146
 20
-138.1405387514
 10
319.0200007057
 20
-138.9927896414
 10
318.1366285268
 20
-139.735577424
 10
317.2347257248
 20
-140.3567055445
 10
316.3291015186
 20
-140.8459750963
 10
315.4346262327
 20
-141.1953522868
 10
314.5659871266
 20
-141.3991003523
 10
313.7374472304
 20
-141.4538737551
 10
312.9626111462
 20
-141.3587731174
 10
312.2542016613
 20
-141.1153599892
 10
311.6238508396
 20
-140.7276312073
 10
311.0819090243
 20
-140.2019532675
 10
310.637274885
 20
-139.546957787
 10
310.2972493019
 20
-138.7733997736
 10
310.0674154858
 20
-137.8939810285
 10
309.9515473016
 20
-136.9231415831
 10
309.9515473016
 20
-135.8768225943
 10
310.0674154858
 20
-134.7722045909
 10
310.2972493019
 20
-133.6274253701
 10
310.637274885
 20
-132.461282175
 10
311.0819090243
 20
-131.2929230445
 10
311.6238508396
 20
-130.1415324034
 10
312.2542016613
 20
-129.0260160542
 10
312.9626111462
 20
-127.9646907443
 10
313.7374472304
 20
-126.9749834062
 10
314.5659871266
 20
-126.0731450069
 10
315.4346262327
 20
-125.2739837079
 10
316.3291015186
 20
-124.5906217159
 10
317.2347257248
 20
-124.0342798156
 10
318.1366285268
 20
-123.6140931259
 10
319.0200007057
 20
-123.3369611004
 10
319.8703373146
 20
-123.2074342395
 10
320.67367585
 20
-123.2276393705
 10
321.4168255152
 20
-123.3972447258
 10
322.0875838134
 20
-123.7134653902
 10
322.6749369119
 20
-124.171109029
 10
323.1692404889
 20
-124.7626611464
 10
323.5623780934
 20
-125.4784084729
 10
323.8478944169
 20
-126.3065984573
 10
324.0211012891
 20
-127.2336322429
 10
324.0791546581
 20
-128.2442879606
  0
LWPOLYLINE
  5
10D
330
1F
100
AcDbEntity
  8
0
  6
Continuous
 62
     7
370
    25
100
AcDbPolyline
 90
       50
 70
   128
 43
0.0
 10
324.0791546581
 20
-26.1766864749
 10
324.0211012892
 20
-27.2543691857
 10
323.8478944169
 20
-28.3813833693
 10
323.5623780934
 20
-29.539223484
 10
323.1692404889
 20
-30.7088778271
 10
322.6749369119
 20
-31.8711407066
 10
322.0875838134
 20
-33.0069277981
 10
321.4168255152
 20
-34.0975895091
 10
320.67367585
 20
-35.1252172044
 10
319.8703373146
 20
-36.0729372657
 10
319.0200007057
 20
-36.9251881557
 10
318.1366285268
 20
-37.6679759383
 10
317.2347257248
 20
-38.2891040588
 10
316.3291015186
 20
-38.7783736106
 10
315.4346262327
 20
-39.1277508011
 10
314.5659871266
 20
-39.3314988665
 10
313.7374472304
 20
-39.3862722693
 10
312.9626111463
 20
-39.2911716317
 10
312.2542016613
 20
-39.0477585035
 10
311.6238508396
 20
-38.6600297216
 10
311.0819090243
 20
-38.1343517817
 10
310.637274885
 20
-37.4793563013
 10
310.2972493019
 20
-36.7057982879
 10
310.0674154858
 20
-35.8263795428
 10
309.9515473016
 20
-34.8555400974
 10
309.9515473016
 20
-33.8092211086
 10
310.0674154858
 20
-32.7046031052
 10
310.2972493019
 20
-31.5598238844
 10
310.637274885
 20
-30.3936806892
 10
311.0819090243
 20
-29.2253215588
 10
311.6238508396
 20
-28.0739309177
 10
312.2542016613
 20
-26.9584145684
 10
312.9626111463
 20
-25.8970892586
 10
313.7374472304
 20
-24.9073819205
 10
314.5659871266
 20
-24.0055435212
 10
315.4346262327
 20
-23.2063822222
 10
316.3291015186
 20
-22.5230202301
 10
317.2347257248
 20
-21.9666783299
 10
318.1366285268
 20
-21.5464916402
 10
319.0200007057
 20
-21.2693596147
 10
319.8703373146
 20
-21.1398327538
 10
320.67367585
 20
-21.1600378848
 10
321.4168255152
 20
-21.3296432401
 10
322.0875838134
 20
-21.6458639044
 10
322.6749369119
 20
-22.1035075433
 10
323.1692404889
 20
-22.6950596607
 10
323.5623780934
 20
-23.4108069872
 10
323.8478944169
 20
-24.2389969716
 10
324.0211012892
 20
-25.1660307572
 10
324.0791546581
 20
-26.1766864749
  0
LWPOLYLINE
  5
10E
330
1F
100
AcDbEntity
  8
0
  6
Continuous
 62
     7
370
    25
100
AcDbPolyline
 90
      100
 70
   128
 43
0.0
 10
345.2923580937
 20
-64.9643655404
 10
345.235412705
 20
-67.0687681676
 10
345.0648058376
 20
-69.2304448545
 10
344.7812244653
 20
-71.4406912921
 10
344.3858104702
 20
-73.6906075981
 10
343.8801560448
 20
-75.9711341537
 10
343.2662972811
 20
-78.2730880831
 10
342.5467059717
 20
-80.5872002306
 10
341.7242796567
 20
-82.9041524831
 10
340.8023299568
 20
-85.2146152918
 10
339.7845692378
 20
-87.5092852383
 10
338.6750956631
 20
-89.7789224966
 10
337.4783766911
 20
-92.0143880387
 10
336.1992310867
 20
-94.2066804337
 10
334.8428095179
 20
-96.3469720939
 10
333.4145738156
 20
-98.4266448202
 10
331.9202749807
 20
-100.4373245046
 10
330.3659300275
 20
-102.3709148495
 10
328.7577977543
 20
-104.2196299693
 10
327.1023535423
 20
-105.9760257404
 10
325.406263281
 20
-107.6330297772
 10
323.6763565272
 20
-109.1839699091
 10
321.919599005
 20
-110.6226010477
 10
320.1430645569
 20
-111.9431303331
 10
318.3539066599
 20
-113.1402404599
 10
316.5593296216
 20
-114.2091110882
 10
314.7665595702
 20
-115.1454382532
 10
312.982815358
 20
-115.9454516959
 10
311.2152794934
 20
-116.6059300445
 10
309.4710692195
 20
-117.1242137858
 10
307.7572078555
 20
-117.4982159741
 10
306.080596516
 20
-117.7264306346
 10
304.4479863234
 20
-117.8079388275
 10
302.8659512225
 20
-117.7424123479
 10
301.3408615105
 20
-117.5301150479
 10
299.8788581852
 20
-117.1719017738
 10
298.4858282181
 20
-116.669214924
 10
297.1673808491
 20
-116.0240786411
 10
295.9288250006
 20
-115.2390906611
 10
294.7751478997
 20
-114.3174118536
 10
293.7109949969
 20
-113.2627534939
 10
292.7406512605
 20
-112.0793623189
 10
291.8680239222
 20
-110.7720034272
 10
291.0966267442
 20
-109.3459410916
 10
290.4295658707
 20
-107.8069175619
 10
289.8695273205
 20
-106.1611299427
 10
289.4187661712
 20
-104.4152052397
 10
289.0790974787
 20
-102.5761736756
 10
288.851888969
 20
-100.6514403814
 10
288.7380555306
 20
-98.6487555788
 10
288.7380555306
 20
-96.5761833726
 10
288.851888969
 20
-94.4420692795
 10
289.0790974787
 20
-92.2550066239
 10
289.4187661712
 20
-90.0238019351
 10
289.8695273205
 20
-87.7574394869
 10
290.4295658707
 20
-85.465045121
 10
291.0966267442
 20
-83.1558495004
 10
291.8680239222
 20
-80.8391509409
 10
292.7406512605
 20
-78.5242779698
 10
293.7109949969
 20
-76.2205517638
 10
294.7751478997
 20
-73.937248615
 10
295.9288250006
 20
-71.6835625794
 10
297.1673808491
 20
-69.4685684552
 10
298.4858282181
 20
-67.301185242
 10
299.8788581852
 20
-65.190140227
 10
301.3408615105
 20
-63.1439338435
 10
302.8659512225
 20
-61.1708054423
 10
304.4479863234
 20
-59.2787001151
 10
306.080596516
 20
-57.4752367023
 10
307.7572078555
 20
-55.7676771144
 10
309.4710692195
 20
-54.1628970913
 10
311.2152794934
 20
-52.6673585158
 10
312.982815358
 20
-51.2870833938
 10
314.7665595702
 20
-50.0276296061
 10
316.5593296216
 20
-48.8940685286
 10
318.3539066599
 20
-47.8909646117
 10
320.1430645569
 20
-47.0223570007
 10
321.919599005
 20
-46.291743272
 10
323.6763565272
 20
-45.7020653492
 10
325.406263281
 20
-45.2556976572
 10
327.1023535423
 20
-44.9544375611
 10
328.7577977543
 20
-44.7994981289
 10
330.3659300275
 20
-44.7915032472
 10
331.9202749807
 20
-44.9304851085
 10
333.4145738156
 20
-45.2158840818
 10
334.8428095179
 20
-45.6465509663
 10
336.1992310867
 20
-46.2207516183
 10
337.4783766911
 20
-46.9361739346
 10
338.6750956631
 20
-47.7899371619
 10
339.7845692378
 20
-48.7786034972
 10
340.8023299568
 20
-49.8981919299
 10
341.7242796567
 20
-51.1441942726
 10
342.5467059717
 20
-52.5115933137
 10
343.2662972811
 20
-53.9948830198
 10
343.8801560448
 20
-55.5880907068
 10
344.3858104702
 20
-57.2848010896
 10
344.7812244653
 20
-59.0781821145
 10
345.0648058376
 20
-60.9610124689
 10
345.235412705
 20
-62.9257106596
 10
345.2923580937
 20
-64.9643655404
  0
LWPOLYLINE
  5
10F
330
1F
100
AcDbEntity
  8
0
  6
Continuous
 62
     7
370
    25
100
AcDbPolyline
 90
       50
 70
   128
 43
0.0
 10
368.2733284823
 20
-51.6977337233
 10
368.2152751133
 20
-52.7754164341
 10
368.042068241
 20
-53.9024306177
 10
367.7565519176
 20
-55.0602707324
 10
367.363414313
 20
-56.2299250755
 10
366.869110736
 20
-57.392187955
 10
366.2817576376
 20
-58.5279750465
 10
365.6109993394
 20
-59.6186367575
 10
364.8678496741
 20
-60.6462644528
 10
364.0645111388
 20
-61.5939845141
 10
363.2141745298
 20
-62.4462354041
 10
362.330802351
 20
-63.1890231867
 10
361.4288995489
 20
-63.8101513072
 10
360.5232753427
 20
-64.299420859
 10
359.6288000569
 20
-64.6487980495
 10
358.7601609508
 20
-64.852546115
 10
357.9316210546
 20
-64.9073195177
 10
357.1567849704
 20
-64.8122188801
 10
356.4483754854
 20
-64.5688057519
 10
355.8180246637
 20
-64.18107697
 10
355.2760828484
 20
-63.6553990301
 10
354.8314487091
 20
-63.0004035497
 10
354.4914231261
 20
-62.2268455363
 10
354.26158931
 20
-61.3474267912
 10
354.1457211258
 20
-60.3765873458
 10
354.1457211258
 20
-59.330268357
 10
354.26158931
 20
-58.2256503536
 10
354.4914231261
 20
-57.0808711328
 10
354.8314487091
 20
-55.9147279377
 10
355.2760828484
 20
-54.7463688072
 10
355.8180246637
 20
-53.5949781661
 10
356.4483754854
 20
-52.4794618169
 10
357.1567849704
 20
-51.418136507
 10
357.9316210546
 20
-50.4284291689
 10
358.7601609508
 20
-49.5265907696
 10
359.6288000569
 20
-48.7274294706
 10
360.5232753427
 20
-48.0440674786
 10
361.4288995489
 20
-47.4877255783
 10
362.330802351
 20
-47.0675388886
 10
363.2141745298
 20
-46.7904068631
 10
364.0645111388
 20
-46.6608800022
 10
364.8678496741
 20
-46.6810851332
 10
365.6109993394
 20
-46.8506904885
 10
366.2817576376
 20
-47.1669111528
 10
366.869110736
 20
-47.6245547917
 10
367.363414313
 20
-48.2161069091
 10
367.7565519176
 20
-48.9318542356
 10
368.042068241
 20
-49.76004422
 10
368.2152751133
 20
-50.6870780056
 10
368.2733284823
 20
-51.6977337233
  0
LWPOLYLINE
  5
110
330
1F
100
AcDbEntity
  8
0
  6
Continuous
 62
     7
370
    25
100
AcDbPolyline
 90
       50
 70
   128
 43
0.0
 10
279.884980834
 20
-102.7232407122
 10
279.826927465
 20
-103.800923423
 10
279.6537205927
 20
-104.9279376066
 10
279.3682042693
 20
-106.0857777213
 10
278.9750666647
 20
-107.2554320644
 10
278.4807630877
 20
-108.4176949439
 10
277.8934099893
 20
-109.5534820354
 10
277.2226516911
 20
-110.6441437465
 10
276.4795020258
 20
-111.6717714418
 10
275.6761634904
 20
-112.619491503
 10
274.8258268815
 20
-113.471742393
 10
273.9424547027
 20
-114.2145301756
 10
273.0405519006
 20
-114.8356582961
 10
272.1349276944
 20
-115.3249278479
 10
271.2404524086
 20
-115.6743050384
 10
270.3718133025
 20
-115.8780531039
 10
269.5432734062
 20
-115.9328265067
 10
268.7684373221
 20
-115.837725869
 10
268.0600278371
 20
-115.5943127408
 10
267.4296770154
 20
-115.2065839589
 10
266.8877352001
 20
-114.6809060191
 10
266.4431010608
 20
-114.0259105386
 10
266.1030754778
 20
-113.2523525252
 10
265.8732416617
 20
-112.3729337801
 10
265.7573734774
 20
-111.4020943347
 10
265.7573734774
 20
-110.3557753459
 10
265.8732416617
 20
-109.2511573425
 10
266.1030754778
 20
-108.1063781217
 10
266.4431010608
 20
-106.9402349266
 10
266.8877352001
 20
-105.7718757961
 10
267.4296770154
 20
-104.620485155
 10
268.0600278371
 20
-103.5049688058
 10
268.7684373221
 20
-102.4436434959
 10
269.5432734062
 20
-101.4539361578
 10
270.3718133025
 20
-100.5520977585
 10
271.2404524086
 20
-99.7529364595
 10
272.1349276944
 20
-99.0695744675
 10
273.0405519006
 20
-98.5132325672
 10
273.9424547027
 20
-98.0930458775
 10
274.8258268815
 20
-97.815913852
 10
275.6761634904
 20
-97.6863869911
 10
276.4795020258
 20
-97.7065921221
 10
277.2226516911
 20
-97.8761974774
 10
277.8934099893
 20
-98.1924181418
 10
278.4807630877
 20
-98.6500617806
 10
278.9750666647
 20
-99.241613898
 10
279.3682042693
 20
-99.9573612245
 10
279.6537205927
 20
-100.7855512089
 10
279.826927465
 20
-101.7125849945
 10
279.884980834
 20
-102.7232407122
  0
LINE
  5
111
330
1F
100
AcDbEntity
  8
0
  6
Continuous
 62
     7
370
    25
100
AcDbLine
 10
357.4097331548
 20
-63.9824180997
 30
0.0
 11
357.4823405233
 21
-64.0230022487
 31
0.0
  0
LINE
  5
112
330
1F
100
AcDbEntity
  8
0
  6
Continuous
 62
     7
370
    25
100
AcDbLine
 10
313.2155593306
 20
-140.5289723371
 30
0.0
 11
313.2881666992
 21
-140.569556486
 31
0.0
  0
ARC
  5
113
330
1F
100
AcDbEntity
  8
0
  6
Continuous
 62
     7
370
    25
100
AcDbCircle
 10
330.6508299779
 20
-59.2924387773
 30
0.0
 40
13.1252024244463
100
AcDbArc
 50
50.1986528527
 51
71.3537670528
  0
ARC
  5
114
330
1F
100
AcDbEntity
  8
0
  6
Continuous
 62
     7
370
    25
100
AcDbCircle
 10
304.7623016832
 20
-104.1371943134
 30
0.0
 40
13.09267511373998
100
AcDbArc
 50
229.1221656807
 51
249.6751399673
  0
LINE
  5
115
330
1F
100
AcDbEntity
  8
0
  6
Continuous
 62
     7
370
    25
100
AcDbLine
 10
313.2155593306
 20
-38.4613708513
 30
0.0
 11
313.2881666992
 21
-38.5019550003
 31
0.0
  0
LINE
  5
116
330
1F
100
AcDbEntity
  8
0
  6
Continuous
 62
     7
370
    25
100
AcDbLine
 10
269.0213855064
 20
-115.0079250887
 30
0.0
 11
269.093992875
 21
-115.0485092376
 31
0.0
  0
LWPOLYLINE
  5
117
330
1F
100
AcDbEntity
  8
0
  6
Continuous
 62
     1
370
    25
100
AcDbPolyline
 90
       52
 70
   128
 43
0.0
 10
376.0515030754
 20
-48.0238972201
 10
375.9944050427
 20
-51.0366216726
 10
375.823222717
 20
-54.1093725608
 10
375.5382911955
 20
-57.2361348304
 10
375.1401682452
 20
-60.4107876975
 10
374.6296332104
 20
-63.6271166301
 10
374.0076854874
 20
-66.8788255131
 10
373.2755425681
 20
-70.1595489738
 10
372.4346376566
 20
-73.4628648419
 10
371.4866168638
 20
-76.7823067215
 10
370.4333359849
 20
-80.1113766492
 10
369.2768568667
 20
-83.4435578144
 10
368.0194433714
 20
-86.7723273158
 10
366.6635569449
 20
-90.0911689309
 10
365.2118517986
 20
-93.3935858714
 10
363.6671697135
 20
-96.673113501
 10
362.0325344773
 20
-99.9233319904
 10
360.3111459652
 20
-103.1378788842
 10
358.5063738761
 20
-106.310461556
 10
356.6217511361
 20
-109.4348695262
 10
354.6609669828
 20
-112.5049866195
 10
352.6278597431
 20
-115.5148029374
 10
350.52640932
 20
-118.4584266232
 10
348.3607294014
 20
-121.3300953954
 10
346.1350594074
 20
-124.1241878274
 10
343.8537561915
 20
-126.835234352
 10
341.5212855119
 20
-129.4579279685
 10
339.1422132895
 20
-131.9871346308
 10
336.72119667
 20
-134.4179032982
 10
334.2629749069
 20
-136.7454756269
 10
331.7723600849
 20
-138.9652952847
 10
329.2542276995
 20
-141.0730168704
 10
326.7135071129
 20
-143.06451442
 10
324.1551719052
 20
-144.9358894835
 10
321.5842301376
 20
-146.6834787564
 10
319.0057145493
 20
-148.3038612506
 10
316.4246727057
 20
-149.7938649913
 10
313.8461571174
 20
-151.1505732262
 10
311.2752153497
 20
-152.3713301352
 10
308.716880142
 20
-153.4537460293
 10
306.1761595555
 20
-154.3957020286
 10
303.65802717
 20
-155.19535421
 10
301.167412348
 20
-155.8511372167
 10
298.709190585
 20
-156.3617673228
 10
296.2881739654
 20
-156.7262449459
 10
293.909101743
 20
-156.9438566038
 10
291.5766310634
 20
-157.0141763116
 10
289.2953278476
 20
-156.9370664151
 10
287.0696578535
 20
-156.7126778605
 10
284.9039779349
 20
-156.341449899
 10
282.8025275118
 20
-155.8241092268
 10
281.0627251998
 20
-155.2676989777
  0
LWPOLYLINE
  5
118
330
1F
100
AcDbEntity
  8
0
  6
Continuous
 62
     1
370
    25
100
AcDbPolyline
 90
       17
 70
   128
 43
0.0
 10
363.3407993197
 20
-13.3842986964
 10
363.6671697135
 20
-13.6733278835
 10
365.2118517986
 20
-15.1694035395
 10
366.6635569449
 20
-16.7957173949
 10
368.0194433714
 20
-18.549085864
 10
369.2768568667
 20
-20.4260766457
 10
370.4333359849
 20
-22.4230154424
 10
371.4866168638
 20
-24.5359931526
 10
372.4346376566
 20
-26.7608735232
 10
373.2755425681
 20
-29.0933012465
 10
374.0076854874
 20
-31.5287104856
 10
374.6296332104
 20
-34.0623338125
 10
375.1401682452
 20
-36.6892115407
 10
375.5382911955
 20
-39.4042014336
 10
375.823222717
 20
-42.201988771
 10
375.9944050427
 20
-45.0770967528
 10
376.0515030754
 20
-48.0238972201
  0
LWPOLYLINE
  5
119
330
1F
100
AcDbEntity
  8
0
  6
Continuous
 62
     1
370
    25
100
AcDbPolyline
 90
       17
 70
   128
 43
0.0
 10
387.3652115743
 20
-54.5551621147
 10
387.3081135417
 20
-51.6083616474
 10
387.136931216
 20
-48.7332536656
 10
386.8519996945
 20
-45.9354663282
 10
386.4538767442
 20
-43.2204764353
 10
385.9433417094
 20
-40.5935987071
 10
385.3213939864
 20
-38.0599753802
 10
384.5892510671
 20
-35.6245661411
 10
383.7483461556
 20
-33.2921384178
 10
382.8003253628
 20
-31.0672580472
 10
381.7470444839
 20
-28.954280337
 10
380.5905653657
 20
-26.9573415403
 10
379.3331518704
 20
-25.0803507586
 10
377.9772654439
 20
-23.3269822895
 10
376.5255602976
 20
-21.7006684341
 10
374.9808782125
 20
-20.2045927781
 10
374.5816247868
 20
-19.8522202475
  0
LWPOLYLINE
  5
11A
330
1F
100
AcDbEntity
  8
0
  6
Continuous
 62
     1
370
    25
100
AcDbPolyline
 90
       52
 70
   128
 43
0.0
 10
292.7758833612
 20
-161.9375598552
 10
294.1162360108
 20
-162.3553741214
 10
296.2176864339
 20
-162.8727147936
 10
298.3833663525
 20
-163.2439427551
 10
300.6090363465
 20
-163.4683313097
 10
302.8903395624
 20
-163.5454412062
 10
305.222810242
 20
-163.4751214984
 10
307.6018824644
 20
-163.2575098405
 10
310.0228990839
 20
-162.8930322174
 10
312.481120847
 20
-162.3824021113
 10
314.971735669
 20
-161.7266191045
 10
317.4898680545
 20
-160.9269669232
 10
320.030588641
 20
-159.9850109239
 10
322.5889238487
 20
-158.9025950298
 10
325.1598656164
 20
-157.6818381208
 10
327.7383812046
 20
-156.3251298859
 10
330.3194230483
 20
-154.8351261452
 10
332.8979386365
 20
-153.214743651
 10
335.4688804042
 20
-151.4671543781
 10
338.0272156119
 20
-149.5957793146
 10
340.5679361984
 20
-147.604281765
 10
343.0860685839
 20
-145.4965601793
 10
345.5766834059
 20
-143.2767405215
 10
348.034905169
 20
-140.9491681928
 10
350.4559217885
 20
-138.5183995254
 10
352.8349940109
 20
-135.9891928631
 10
355.1674646905
 20
-133.3664992466
 10
357.4487679064
 20
-130.6554527219
 10
359.6744379004
 20
-127.86136029
 10
361.840117819
 20
-124.9896915178
 10
363.9415682421
 20
-122.046067832
 10
365.9746754818
 20
-119.036251514
 10
367.9354596351
 20
-115.9661344208
 10
369.8200823751
 20
-112.8417264506
 10
371.6248544642
 20
-109.6691437788
 10
373.3462429763
 20
-106.454596885
 10
374.9808782125
 20
-103.2043783956
 10
376.5255602976
 20
-99.924850766
 10
377.9772654439
 20
-96.6224338255
 10
379.3331518704
 20
-93.3035922104
 10
380.5905653657
 20
-89.974822709
 10
381.7470444839
 20
-86.6426415438
 10
382.8003253628
 20
-83.3135716161
 10
383.7483461556
 20
-79.9941297365
 10
384.5892510671
 20
-76.6908138684
 10
385.3213939864
 20
-73.4100904077
 10
385.9433417094
 20
-70.1583815246
 10
386.4538767442
 20
-66.9420525921
 10
386.8519996945
 20
-63.767399725
 10
387.136931216
 20
-60.6406374554
 10
387.3081135417
 20
-57.5678865672
 10
387.3652115743
 20
-54.5551621147
  0
LWPOLYLINE
  5
11B
330
1F
100
AcDbEntity
  8
0
  6
Continuous
 62
     1
370
    25
100
AcDbPolyline
 90
       26
 70
   128
 43
0.0
 10
366.4007104514
 20
-48.3887697174
 10
366.3335449702
 20
-48.3514151508
 10
365.6843402313
 20
-48.0923799459
 10
364.9677710137
 20
-47.9778108861
 10
364.1966245121
 20
-48.0097524589
 10
363.384661854
 20
-48.1876346664
 10
362.5463725325
 20
-48.5082831961
 10
361.6967158401
 20
-48.9659760677
 10
360.8508539208
 20
-49.5525457408
 10
360.0238812005
 20
-50.2575248659
 10
359.2305550271
 20
-51.0683330736
 10
358.4850323248
 20
-51.9705014724
 10
357.800616964
 20
-52.9479308458
 10
357.189522353
 20
-53.9831789434
 10
356.6626534895
 20
-55.0577717385
 10
356.2294123611
 20
-56.1525330971
 10
355.8975301657
 20
-57.2479269769
 10
355.6729293492
 20
-58.3244060481
 10
355.5596179184
 20
-59.3627605162
 10
355.5596179184
 20
-60.3444609212
 10
355.6729293492
 20
-61.251988796
 10
355.8975301657
 20
-62.0691492842
 10
356.2294123611
 20
-62.7813601375
 10
356.6626534895
 20
-63.3759119365
 10
357.189522353
 20
-63.8421948901
 10
357.4097331548
 20
-63.9824180997
  0
LWPOLYLINE
  5
11C
330
1F
100
AcDbEntity
  8
0
  6
Continuous
 62
     1
370
    25
100
AcDbPolyline
 90
       26
 70
   128
 43
0.0
 10
322.2065366272
 20
-124.9353239547
 10
322.139371146
 20
-124.8979693882
 10
321.4901664071
 20
-124.6389341832
 10
320.7735971895
 20
-124.5243651234
 10
320.0024506879
 20
-124.5563066963
 10
319.1904880299
 20
-124.7341889037
 10
318.3521987083
 20
-125.0548374335
 10
317.5025420159
 20
-125.512530305
 10
316.6566800966
 20
-126.0990999781
 10
315.8297073764
 20
-126.8040791032
 10
315.0363812029
 20
-127.6148873109
 10
314.2908585006
 20
-128.5170557097
 10
313.6064431398
 20
-129.4944850831
 10
312.9953485288
 20
-130.5297331807
 10
312.4684796654
 20
-131.6043259758
 10
312.0352385369
 20
-132.6990873344
 10
311.7033563416
 20
-133.7944812142
 10
311.478755525
 20
-134.8709602854
 10
311.3654440942
 20
-135.9093147535
 10
311.3654440942
 20
-136.8910151585
 10
311.478755525
 20
-137.7985430333
 10
311.7033563416
 20
-138.6157035215
 10
312.0352385369
 20
-139.3279143748
 10
312.4684796654
 20
-139.9224661738
 10
312.9953485288
 20
-140.3887491274
 10
313.2155593306
 20
-140.5289723371
  0
LWPOLYLINE
  5
11D
330
1F
100
AcDbEntity
  8
0
  6
Continuous
 62
     1
370
    25
100
AcDbPolyline
 90
       47
 70
   128
 43
0.0
 10
334.8472718824
 20
-46.8561686763
 10
333.4925488575
 20
-46.4741979017
 10
332.0109907419
 20
-46.2158441508
 10
330.4706881294
 20
-46.103305415
 10
328.877970454
 20
-46.1370441398
 10
327.2393825341
 20
-46.3169216858
 10
325.5616576792
 20
-46.6421988976
 10
323.8516900204
 20
-47.1115391411
 10
322.1165061816
 20
-47.7230137968
 10
320.3632364055
 20
-48.4741101841
 10
318.5990852536
 20
-49.3617418869
 10
316.8313020014
 20
-50.382261436
 10
315.0671508495
 20
-51.5314752977
 10
313.3138810733
 20
-52.8046611059
 10
311.5786972346
 20
-54.1965870669
 10
309.8687295757
 20
-55.7015334583
 10
308.1910047208
 20
-57.3133161327
 10
306.552416801
 20
-59.0253119292
 10
304.9596991255
 20
-60.83048589
 10
303.4193965131
 20
-62.7214201681
 10
301.9378383974
 20
-64.6903445088
 10
300.5211128186
 20
-66.7291681797
 10
299.1750414059
 20
-68.8295132171
 10
297.9051554556
 20
-70.9827488527
 10
296.7166732013
 20
-73.1800269793
 10
295.6144783717
 20
-75.4123185098
 10
294.6031001216
 20
-77.6704504795
 10
293.6866944213
 20
-79.9451437399
 10
292.8690269783
 20
-82.2270510882
 10
292.1534577636
 20
-84.5067956779
 10
291.5429272045
 20
-86.7750095493
 10
291.0399441021
 20
-89.0223721251
 10
290.6465753217
 20
-91.2396485105
 10
290.3644373003
 20
-93.4177274412
 10
290.1946894032
 20
-95.5476587236
 10
290.1380291612
 20
-97.6206900133
 10
290.1946894032
 20
-99.62830278
 10
290.3644373003
 20
-101.5622473122
 10
290.6465753217
 20
-103.4145766171
 10
291.0399441021
 20
-105.1776790761
 10
291.5429272045
 20
-106.8443097231
 10
292.1534577636
 20
-108.4076200153
 10
292.8690269783
 20
-109.8611859753
 10
293.6866944213
 20
-111.1990345888
 10
294.6031001216
 20
-112.415668349
 10
295.6144783717
 20
-113.5060878467
 10
296.1938220298
 20
-114.0366537967
  0
LWPOLYLINE
  5
11E
330
1F
100
AcDbEntity
  8
0
  6
Continuous
 62
     1
370
    25
100
AcDbPolyline
 90
       42
 70
   128
 43
0.0
 10
304.6836809934
 20
-117.2451771939
 10
304.1827354773
 20
-116.3924508699
 10
303.4671662626
 20
-114.9388849098
 10
302.8566357035
 20
-113.3755746177
 10
302.353652601
 20
-111.7089439707
 10
301.9602838207
 20
-109.9458415117
 10
301.6781457992
 20
-108.0935122068
 10
301.5083979022
 20
-106.1595676746
 10
301.4517376602
 20
-104.1519549079
 10
301.5083979022
 20
-102.0789236182
 10
301.6781457992
 20
-99.9489923358
 10
301.9602838207
 20
-97.7709134051
 10
302.353652601
 20
-95.5536370197
 10
302.8566357035
 20
-93.3062744439
 10
303.4671662626
 20
-91.0380605725
 10
304.1827354773
 20
-88.7583159828
 10
305.0004029203
 20
-86.4764086344
 10
305.9168086206
 20
-84.2017153741
 10
306.9281868707
 20
-81.9435834044
 10
308.0303817003
 20
-79.7112918738
 10
309.2188639546
 20
-77.5140137472
 10
310.4887499049
 20
-75.3607781117
 10
311.8348213175
 20
-73.2604330743
 10
313.2515468964
 20
-71.2216094034
 10
314.7331050121
 20
-69.2526850626
 10
316.2734076245
 20
-67.3617507846
 10
317.8661253
 20
-65.5565768238
 10
319.5047132198
 20
-63.8445810272
 10
321.1824380747
 20
-62.2327983529
 10
322.8924057335
 20
-60.7278519615
 10
324.6275895723
 20
-59.3359260005
 10
326.3808593484
 20
-58.0627401923
 10
328.1450105004
 20
-56.9135263306
 10
329.9127937525
 20
-55.8930067814
 10
331.6769449045
 20
-55.0053750787
 10
333.4302146806
 20
-54.2542786914
 10
335.1653985194
 20
-53.6428040357
 10
336.8753661782
 20
-53.1734637921
 10
338.5530910331
 20
-52.8481865804
 10
340.1916789529
 20
-52.6683090344
 10
341.7843966284
 20
-52.6345703095
 10
341.9897454763
 20
-52.6410075575
  0
LWPOLYLINE
  5
11F
330
1F
100
AcDbEntity
  8
0
  6
Continuous
 62
     1
370
    25
100
AcDbPolyline
 90
       26
 70
   128
 43
0.0
 10
322.2065366272
 20
-22.867722469
 10
322.139371146
 20
-22.8303679024
 10
321.4901664071
 20
-22.5713326975
 10
320.7735971895
 20
-22.4567636377
 10
320.0024506879
 20
-22.4887052105
 10
319.1904880299
 20
-22.666587418
 10
318.3521987083
 20
-22.9872359477
 10
317.5025420159
 20
-23.4449288193
 10
316.6566800966
 20
-24.0314984924
 10
315.8297073764
 20
-24.7364776174
 10
315.0363812029
 20
-25.5472858252
 10
314.2908585006
 20
-26.449454224
 10
313.6064431398
 20
-27.4268835974
 10
312.9953485288
 20
-28.462131695
 10
312.4684796654
 20
-29.5367244901
 10
312.0352385369
 20
-30.6314858487
 10
311.7033563416
 20
-31.7268797285
 10
311.4787555251
 20
-32.8033587997
 10
311.3654440942
 20
-33.8417132678
 10
311.3654440942
 20
-34.8234136728
 10
311.4787555251
 20
-35.7309415476
 10
311.7033563416
 20
-36.5481020358
 10
312.0352385369
 20
-37.2603128891
 10
312.4684796654
 20
-37.8548646881
 10
312.9953485288
 20
-38.3211476417
 10
313.2155593306
 20
-38.4613708513
  0
LWPOLYLINE
  5
120
330
1F
100
AcDbEntity
  8
0
  6
Continuous
 62
     1
370
    25
100
AcDbPolyline
 90
       26
 70
   128
 43
0.0
 10
278.0123628031
 20
-99.4142767063
 10
277.9451973218
 20
-99.3769221398
 10
277.2959925829
 20
-99.1178869348
 10
276.5794233654
 20
-99.003317875
 10
275.8082768638
 20
-99.0352594479
 10
274.9963142057
 20
-99.2131416553
 10
274.1580248841
 20
-99.5337901851
 10
273.3083681918
 20
-99.9914830566
 10
272.4625062725
 20
-100.5780527297
 10
271.6355335522
 20
-101.2830318548
 10
270.8422073788
 20
-102.0938400625
 10
270.0966846765
 20
-102.9960084613
 10
269.4122693157
 20
-103.9734378347
 10
268.8011747046
 20
-105.0086859323
 10
268.2743058412
 20
-106.0832787274
 10
267.8410647127
 20
-107.178040086
 10
267.5091825174
 20
-108.2734339658
 10
267.2845817009
 20
-109.349913037
 10
267.17127027
 20
-110.3882675051
 10
267.17127027
 20
-111.3699679101
 10
267.2845817009
 20
-112.2774957849
 10
267.5091825174
 20
-113.0946562731
 10
267.8410647127
 20
-113.8068671264
 10
268.2743058412
 20
-114.4014189254
 10
268.8011747046
 20
-114.867701879
 10
269.0213855064
 20
-115.0079250887
  0
ENDSEC
  0
SECTION
  2
OBJECTS
  0
DICTIONARY
  5
C
330
0
100
AcDbDictionary
281
     1
  3
ACAD_GROUP
350
D
  3
ACAD_LAYOUT
350
1A
  3
ACAD_MLINESTYLE
350
17
  3
ACAD_PLOTSETTINGS
350
19
  3
ACAD_PLOTSTYLENAME
350
E
  3
ACAD_SCALELIST
350
47
  3
DWGPROPS
350
121
  0
DICTIONARY
  5
D
102
{ACAD_REACTORS
330
C
102
}
330
C
100
AcDbDictionary
281
     1
  0
DICTIONARY
  5
1A
102
{ACAD_REACTORS
330
C
102
}
330
C
100
AcDbDictionary
281
     1
  3
Layout1
350
1E
  3
Layout2
350
26
  3
Model
350
22
  0
DICTIONARY
  5
17
102
{ACAD_REACTORS
330
C
102
}
330
C
100
AcDbDictionary
281
     1
  3
Standard
350
18
  0
DICTIONARY
  5
19
102
{ACAD_REACTORS
330
C
102
}
330
C
100
AcDbDictionary
281
     1
  0
ACDBDICTIONARYWDFLT
  5
E
102
{ACAD_REACTORS
330
C
102
}
330
C
100
AcDbDictionary
281
     1
  3
Normal
350
F
100
AcDbDictionaryWithDefault
340
F
  0
DICTIONARY
  5
47
102
{ACAD_REACTORS
330
C
102
}
330
C
100
AcDbDictionary
281
     1
  3
A0
350
48
  3
A1
350
49
  3
A2
350
4A
  3
A3
350
4B
  3
A4
350
4C
  3
A5
350
4D
  3
A6
350
4E
  3
A7
350
4F
  3
A8
350
50
  3
A9
350
51
  3
B0
350
52
  3
B1
350
53
  3
B2
350
54
  3
B3
350
55
  3
B4
350
56
  3
B5
350
57
  3
B6
350
58
  3
B7
350
59
  3
B8
350
5A
  3
B9
350
5B
  3
C0
350
5C
  3
C1
350
5D
  3
C2
350
5E
  3
C3
350
5F
  3
C4
350
60
  3
C5
350
61
  3
C6
350
62
  3
C7
350
63
  3
C8
350
64
  3
C9
350
65
  3
D0
350
66
  3
D1
350
67
  3
D2
350
68
  0
XRECORD
  5
121
102
{ACAD_REACTORS
330
C
102
}
330
C
100
AcDbXrecord
280
     1
  1
DWGPROPS COOKIE
  2

  3

  4

  6

  7

  8
b.kav
  9

300
=
301
=
302
=
303
=
304
=
305
=
306
=
307
=
308
=
309
=
 40
0.0
 41
2459741.467428611
 42
2459741.467430139
  1

 90
        0
  0
LAYOUT
  5
1E
102
{ACAD_REACTORS
330
1A
102
}
330
1A
100
AcDbPlotSettings
  1

  2
none_device
  4

  6

 40
0.0
 41
0.0
 42
0.0
 43
0.0
 44
0.0
 45
0.0
 46
0.0
 47
0.0
 48
0.0
 49
0.0
140
0.0
141
0.0
142
1.0
143
1.0
 70
   688
 72
     1
 73
     0
 74
     5
  7

 75
    16
147
1.0
148
0.0
149
0.0
100
AcDbLayout
  1
Layout1
 70
     1
 71
     1
 10
0.0
 20
0.0
 11
420.0
 21
297.0
 12
0.0
 22
0.0
 32
0.0
 14
1.0000000000E+20
 24
1.0000000000E+20
 34
1.0000000000E+20
 15
-1.0000000000E+20
 25
-1.0000000000E+20
 35
-1.0000000000E+20
146
0.0
 13
0.0
 23
0.0
 33
0.0
 16
1.0
 26
0.0
 36
0.0
 17
0.0
 27
1.0
 37
0.0
 76
     0
330
1B
  0
LAYOUT
  5
26
102
{ACAD_REACTORS
330
1A
102
}
330
1A
100
AcDbPlotSettings
  1

  2
none_device
  4

  6

 40
0.0
 41
0.0
 42
0.0
 43
0.0
 44
0.0
 45
0.0
 46
0.0
 47
0.0
 48
0.0
 49
0.0
140
0.0
141
0.0
142
1.0
143
1.0
 70
   688
 72
     1
 73
     0
 74
     5
  7

 75
    16
147
1.0
148
0.0
149
0.0
100
AcDbLayout
  1
Layout2
 70
     1
 71
     2
 10
0.0
 20
0.0
 11
0.0
 21
0.0
 12
0.0
 22
0.0
 32
0.0
 14
0.0
 24
0.0
 34
0.0
 15
0.0
 25
0.0
 35
0.0
146
0.0
 13
0.0
 23
0.0
 33
0.0
 16
1.0
 26
0.0
 36
0.0
 17
0.0
 27
1.0
 37
0.0
 76
     0
330
23
  0
LAYOUT
  5
22
102
{ACAD_REACTORS
330
1A
102
}
330
1A
100
AcDbPlotSettings
  1

  2
none_device
  4
Letter_(8.50_x_11.00_Inches)
  6

 40
6.35
 41
6.35
 42
6.35000508
 43
6.35000508
 44
215.9
 45
279.4
 46
0.0
 47
0.0
 48
0.0
 49
0.0
140
0.0
141
0.0
142
1.0
143
1.0
 70
  1712
 72
     1
 73
     0
 74
     0
  7

 75
     0
147
1.0
148
0.0
149
0.0
100
AcDbLayout
  1
Model
 70
     1
 71
     0
 10
0.0
 20
0.0
 11
279.4
 21
215.9
 12
0.0
 22
0.0
 32
0.0
 14
0.0
 24
0.0
 34
0.0
 15
279.4
 25
215.9
 35
0.0
146
0.0
 13
0.0
 23
0.0
 33
0.0
 16
1.0
 26
0.0
 36
0.0
 17
0.0
 27
1.0
 37
0.0
 76
     0
330
1F
331
29
  0
MLINESTYLE
  5
18
102
{ACAD_REACTORS
330
17
102
}
330
17
100
AcDbMlineStyle
  2
Standard
 70
     0
  3

 62
   256
 51
90.0
 52
90.0
 71
     2
 49
0.5
 62
   256
  6
BYLAYER
 49
-0.5
 62
   256
  6
BYLAYER
  0
ACDBPLACEHOLDER
  5
F
102
{ACAD_REACTORS
330
E
102
}
330
E
  0
SCALE
  5
48
102
{ACAD_REACTORS
330
47
102
}
330
47
100
AcDbScale
 70
     0
300
1:1
140
1.0
141
1.0
290
     1
  0
SCALE
  5
49
102
{ACAD_REACTORS
330
47
102
}
330
47
100
AcDbScale
 70
     0
300
1:2
140
1.0
141
2.0
290
     0
  0
SCALE
  5
4A
102
{ACAD_REACTORS
330
47
102
}
330
47
100
AcDbScale
 70
     0
300
1:4
140
1.0
141
4.0
290
     0
  0
SCALE
  5
4B
102
{ACAD_REACTORS
330
47
102
}
330
47
100
AcDbScale
 70
     0
300
1:5
140
1.0
141
5.0
290
     0
  0
SCALE
  5
4C
102
{ACAD_REACTORS
330
47
102
}
330
47
100
AcDbScale
 70
     0
300
1:8
140
1.0
141
8.0
290
     0
  0
SCALE
  5
4D
102
{ACAD_REACTORS
330
47
102
}
330
47
100
AcDbScale
 70
     0
300
1:10
140
1.0
141
10.0
290
     0
  0
SCALE
  5
4E
102
{ACAD_REACTORS
330
47
102
}
330
47
100
AcDbScale
 70
     0
300
1:16
140
1.0
141
16.0
290
     0
  0
SCALE
  5
4F
102
{ACAD_REACTORS
330
47
102
}
330
47
100
AcDbScale
 70
     0
300
1:20
140
1.0
141
20.0
290
     0
  0
SCALE
  5
50
102
{ACAD_REACTORS
330
47
102
}
330
47
100
AcDbScale
 70
     0
300
1:30
140
1.0
141
30.0
290
     0
  0
SCALE
  5
51
102
{ACAD_REACTORS
330
47
102
}
330
47
100
AcDbScale
 70
     0
300
1:40
140
1.0
141
40.0
290
     0
  0
SCALE
  5
52
102
{ACAD_REACTORS
330
47
102
}
330
47
100
AcDbScale
 70
     0
300
1:50
140
1.0
141
50.0
290
     0
  0
SCALE
  5
53
102
{ACAD_REACTORS
330
47
102
}
330
47
100
AcDbScale
 70
     0
300
1:100
140
1.0
141
100.0
290
     0
  0
SCALE
  5
54
102
{ACAD_REACTORS
330
47
102
}
330
47
100
AcDbScale
 70
     0
300
2:1
140
2.0
141
1.0
290
     0
  0
SCALE
  5
55
102
{ACAD_REACTORS
330
47
102
}
330
47
100
AcDbScale
 70
     0
300
4:1
140
4.0
141
1.0
290
     0
  0
SCALE
  5
56
102
{ACAD_REACTORS
330
47
102
}
330
47
100
AcDbScale
 70
     0
300
8:1
140
8.0
141
1.0
290
     0
  0
SCALE
  5
57
102
{ACAD_REACTORS
330
47
102
}
330
47
100
AcDbScale
 70
     0
300
10:1
140
10.0
141
1.0
290
     0
  0
SCALE
  5
58
102
{ACAD_REACTORS
330
47
102
}
330
47
100
AcDbScale
 70
     0
300
100:1
140
100.0
141
1.0
290
     0
  0
SCALE
  5
59
102
{ACAD_REACTORS
330
47
102
}
330
47
100
AcDbScale
 70
     0
300
1/128" = 1'-0"
140
0.0078125
141
12.0
290
     0
  0
SCALE
  5
5A
102
{ACAD_REACTORS
330
47
102
}
330
47
100
AcDbScale
 70
     0
300
1/64" = 1'-0"
140
0.015625
141
12.0
290
     0
  0
SCALE
  5
5B
102
{ACAD_REACTORS
330
47
102
}
330
47
100
AcDbScale
 70
     0
300
1/32" = 1'-0"
140
0.03125
141
12.0
290
     0
  0
SCALE
  5
5C
102
{ACAD_REACTORS
330
47
102
}
330
47
100
AcDbScale
 70
     0
300
1/16" = 1'-0"
140
0.0625
141
12.0
290
     0
  0
SCALE
  5
5D
102
{ACAD_REACTORS
330
47
102
}
330
47
100
AcDbScale
 70
     0
300
3/32" = 1'-0"
140
0.09375
141
12.0
290
     0
  0
SCALE
  5
5E
102
{ACAD_REACTORS
330
47
102
}
330
47
100
AcDbScale
 70
     0
300
1/8" = 1'-0"
140
0.125
141
12.0
290
     0
  0
SCALE
  5
5F
102
{ACAD_REACTORS
330
47
102
}
330
47
100
AcDbScale
 70
     0
300
3/16" = 1'-0"
140
0.1875
141
12.0
290
     0
  0
SCALE
  5
60
102
{ACAD_REACTORS
330
47
102
}
330
47
100
AcDbScale
 70
     0
300
1/4" = 1'-0"
140
0.25
141
12.0
290
     0
  0
SCALE
  5
61
102
{ACAD_REACTORS
330
47
102
}
330
47
100
AcDbScale
 70
     0
300
3/8" = 1'-0"
140
0.375
141
12.0
290
     0
  0
SCALE
  5
62
102
{ACAD_REACTORS
330
47
102
}
330
47
100
AcDbScale
 70
     0
300
1/2" = 1'-0"
140
0.5
141
12.0
290
     0
  0
SCALE
  5
63
102
{ACAD_REACTORS
330
47
102
}
330
47
100
AcDbScale
 70
     0
300
3/4" = 1'-0"
140
0.75
141
12.0
290
     0
  0
SCALE
  5
64
102
{ACAD_REACTORS
330
47
102
}
330
47
100
AcDbScale
 70
     0
300
1" = 1'-0"
140
1.0
141
12.0
290
     0
  0
SCALE
  5
65
102
{ACAD_REACTORS
330
47
102
}
330
47
100
AcDbScale
 70
     0
300
1-1/2" = 1'-0"
140
1.5
141
12.0
290
     0
  0
SCALE
  5
66
102
{ACAD_REACTORS
330
47
102
}
330
47
100
AcDbScale
 70
     0
300
3" = 1'-0"
140
3.0
141
12.0
290
     0
  0
SCALE
  5
67
102
{ACAD_REACTORS
330
47
102
}
330
47
100
AcDbScale
 70
     0
300
6" = 1'-0"
140
6.0
141
12.0
290
     0
  0
SCALE
  5
68
102
{ACAD_REACTORS
330
47
102
}
330
47
100
AcDbScale
 70
     0
300
1'-0" = 1'-0"
140
12.0
141
12.0
290
     0
  0
ENDSEC
  0
EOF
